Oops, an error
Loading. Please wait.

In The White Tab

version 2
version 2

Intro

Interactive

2,005 views 3 this week
no commentswrite comment
1 2 3 4 5
please rate
add to favorites
launch autoscroll
font size
0
reset
how to read this tab
guitar tuner
Autoscroll
slow
fast
+/-
esc
set tempo
stop
Help us to improve Ultimate-Guitar.com Take our survey!
×
Author
Difficulty
novice
-----------------------------------------------------------------
In the White - Katatonia
-----------------------------------------------------------------
Tabbed by:Savre

| /  slide up
| \  slide down
| h  hammer-on
| p  pull-off
| ~  vibrato
| +  harmonic
| x  Mute note

Tuning:CFA#D#GC

Note: This tab may not be correct. Corrections are welcomed. Listen to the song to get 
timing. Please Enjoy. Will Tab the rest as soon as i can be bothered and eventually will 
a Gp5 one if nobody else does.

Intro Riff - Guitar Clean #1 w/  lil' Chorus Maybe?

C |--------------------------|
F |--------10----8----10-----|
A#|------9----9----9-----9---|
D#|----7--------7----7-----7-|
G |--0-----------------------|
C |--------------------------|X8

Intro - Distorted\Overdriven Guitar #2

C |-----------------------------------------------|
F |--\10-9----------------------------------------|
A#|-------10-9--9-12-10--9-5---5-4-5/7-5--5-4-4-2-|
D#|-----------------------------------------------|
G |-----------------------------------------------|
C |-----------------------------------------------|From X4-X8

Riff One - Clean Guitar #1 X=Mute 12th fret

C |----------------------------------------|
F |------13-----13------13------13------13-|
A#|-x-xx----x-xx----x-xx----x-xx----x-xx---|
D#|----------------------------------------|
G |----------------------------------------|
C |----------------------------------------|x32

Riff One - Overdriven Guitar #2 w/ lil' chorus

C |--------------------------------------------|
F |-----0-0-0------0-0--------0-0-0------0-0---|
A#|--5--4-4-5---5--4-4-5---5--4-4-5---5--4-4-5-|
D#|--7--5-5-7---7--5-5-7---7--5-5-7---7--5-5-7-|
G |--------------------------------------------|
C |--------------------------------------------|

Repeat Intro Riff #1

C |--------------------------|
F |--------10----8----10-----|
A#|------9----9----9-----9---|
D#|----7--------7----7-----7-|
G |--0-----------------------|
C |--------------------------|X8

Second Part - Distorted\Overdriven Guitar #2

C |-------------5----------------------------------5------------------|
F |-5h6p5-----------5h6p5-----10-8-5---5h6p5-----------5h6p5----------|
A#|-------5-7--5----------5-7----------------5-7--5----------5-7--4-2-|
D#|-------------------------------------------------------------------|
G |-------------------------------------------------------------------|
C |-------------------------------------------------------------------|

Repeat Riff One #1

C |----------------------------------------|
F |------13-----13------13------13------13-|
A#|-x-xx----x-xx----x-xx----x-xx----x-xx---|
D#|----------------------------------------|
G |----------------------------------------|
C |----------------------------------------|

Repeat Riff One - Overdriven Guitar #2 w/ lil' chorus which is slightly different

C |--------------------------------------------|
F |-----0-0--------0-0--------0-0--------0-0---|
A#|--5--4-4-5---5--4-4-2---5--4-4-5---5--4-4-2-|
D#|--7--5-5-7---7--5-5-4---7--5-5-7---7--5-5-4-|
G |--------------------------------------------|
C |--------------------------------------------|

Third Guitar #3

C |--7-8-7--7-8-7--7-8-7--7-8-7--|
F |---8---8--8---8--8---8--8---8-|
A#|------------------------------|
D#|------------------------------|
G |------------------------------|
C |------------------------------|

To be continued...hopefully.
Suggest correction
What's this?
You can suggest a correction to this tab. Community and Mods will review your correction and vote to approve or reject it.
comments
We did not receive enough feedback on this tab! Please rate:
print report bad tab
1 2 3 4 5
guest
You may want to rate the tab now too:
select rating
Please do not post tabs as comments. Select "correction" instead!