Oops, an error
Loading. Please wait.

Cloudbusting Tab

version 1
version 1

Whole song

Interactive

7,984 views 9 this week
no commentswrite comment
1 2 3 4 5
accurate
x 4
add to favorites
launch autoscroll
font size
0
reset
how to read this tab
guitar tuner
Autoscroll
slow
fast
+/-
esc
set tempo
stop
Help us to improve Ultimate-Guitar.com Take our survey!
×
Difficulty
intermediate
Artist: Kate Bush
Song: Cloudbusting

VERSE 1 

C#m    B     A        B   C#m   B    A 
     I still dream of Orgonon
               B
     I wake up cryin'
            C#m   B   A    
     You're mak---ing rain
                B       C#m   B    A
     And you're just in reach
                          B
     When you and sleep escape me

            C#m  B  A  B
     You're like my yo-yo
                 C#m    B
     That glowed in the dark
          C#m  B  A  B
     What made it special
             C#m   B
     Made it dangerous
     C#m  B   A         B     B B
     So   I   bury it             And forget.

CHORUS

    C#m           B              A             B  
E|------------------------------------------------------------|
B|--0--0-2-0--0-2-0--0-2-4-5-4-2-2--2-0-2--2-0-0--0-2-4-5-4-2-|
G|------------------------------------------------------------  x 2
D|------------------------------------------------------------|
A|------------------------------------------------------------|
E|------------------------------------------------------------|

But every time it rains
You're here in my head
Like the sun coming out

    C#m           B              A             B
E|------------------------------------------------------------|
B|--5--5-4-5--5-4-5--5-4-5-7-5-4-5--5-4-5--5-2-0--0-2-4-5-4-2-|
G|------------------------------------------------------------  x 1
D|------------------------------------------------------------|
A|------------------------------------------------------------|
E|------------------------------------------------------------|

Ooh, I just know that something good is gonna happen.

    C#m           B              A             B  
E|------------------------------------------------------------|
B|--0--0-2-0--0-2-0--0-2-4-5-4-2-5--5-4-5--5-2-0--5-4-5-4-2-0-|
G|------------------------------------------------------------  x 1
D|------------------------------------------------------------|
A|------------------------------------------------------------|
E|------------------------------------------------------------|

And I don't know when
But just saying it could even make it happen.

VERSE 2

C#m   B           A          
 On   top of the world,
        B        C#m    B    A 
Looking over the edge
                B
You could see them coming
    C#m    B   A
You looked too small
         B          C#m    B    A
In their big, black car
                      B
To be a threat to the men in power.

      C#m B  A  B
    I hid my yo-yo
           C#m   B
    In the gar---den
    C#m  B     A    B
    I    can't hide you
             C#m   B
    From the government
    C#m  B   A      B B      B B 
    Oh, God, Daddy                I won't forget.

CHORUS 
'Cause every time it rains,
You're here in my head,
Like the sun coming out--
Ooh, I just know that something good is gonna happen.
And I don't know when,
But just saying it could even make it happen.

SOLO (2:29)
E|-----------------------------|
B|--2~-----0--2-0-2--7-7--2--0-|
G|-----------------------------|
D|-----------------------------|
A|-----------------------------|
E|-----------------------------|

E|------------------------|
B|--2-0--2-0-2--7-7--2~---|
G|------------------------|
D|------------------------|
A|------------------------|
E|------------------------|

E|--4-9-----------------------------------------|
B|-------5---2-5-7----------5-7--5-2--0-2---0~--|
G|----------------------------------------------|
D|----------------------------------------------|
A|----------------------------------------------|
E|----------------------------------------------|

CHORUS

And every time it rains
You're here in my head
Like the sun coming out.
Your son's coming out.
Ooh, I just know that something good is gonna happen.
And I don't know when,
But just saying it could even make it happen.

Ooo-ohh, just saying it could even make it happen.

E-yeah yeah yeah yeah yo-ohhhhhhhhh

I'm Cloudbusting Daddy.

Your son's coming out.
Your son's coming out.

Tabbed by: R. Liddell
Suggest correction
What's this?
You can suggest a correction to this tab. Community and Mods will review your correction and vote to approve or reject it.
comments
print report bad tab
guest
You may want to rate the tab now too:
select rating
Please do not post tabs as comments. Select "correction" instead!