Oops, an error
Loading. Please wait.

Dickhead Tab

37,310 views 30 this week
8 commentsread comments
1 2 3 4 5
excellent!
x 23
add to favorites
launch autoscroll
font size
0
reset
how to read this tab
guitar tuner
Autoscroll
slow
fast
+/-
esc
set tempo
stop
Help us to improve Ultimate-Guitar.com Take our survey!
×
Author
Difficulty
novice
Basically its an easy song which is simply....

                                                             
-------------------|-------------------|--------------------|
-------------------|-------------------|--------------------|
-------------------|-------------------|--------------------|
-------------------|-------------------|--------------------|
-------------------|-------------------|--------------------|
--7---5----4---5---|-------------------|--------------------|
Suggest correction
comments
print report bad tab
8 comments total. Showing first comments.
+2 reply
KtNash 10 wrote on December 2 2007, 11:14 am

i guess you can also play this:
A ---2---0------0---
E ----------4-------
sound good as well.

-2 reply
Wooders-07 10 wrote on March 1 2008, 02:55 pm

A ---3---2----------
E ----------5---4---
Is it not that?

-2 reply
_m_e_o_w_ 63 wrote on March 19 2008, 03:00 pm

E --9--7--6--7----

I Though It Was That :P

guest
You may want to rate the tab now too:
select rating
Wanna post a correction for this tab? Suggest correction