Oops, an error
Loading. Please wait.

I Hate Seagulls Tab

version 2
version 2

Whole song

22,726 views 3 this week
no commentswrite comment
1 2 3 4 5
x 10
add to favorites
launch autoscroll
font size
0
reset
how to read this tab
guitar tuner
Autoscroll
slow
fast
+/-
esc
set tempo
stop
Help us to improve Ultimate-Guitar.com Take our survey!
×
Kate Nash - I Hate Seagulls

I just tabbed Kates guitar, not the one in the back... hard enough to do, when you are 
by this beautiful voice. ;-)

Intro

E|----7-----5-----3-----3-----|
B|----------------------------|
G|--7---7-5---5-0---0-0---0---|
D|----------------------------|
A|----------------------------|
E|----------------------------|

this is done til "I hate anyone who if I was serving chips wouldn’t talk to me"

let the open G ring on the following "but"


E|-------|
B|-------|
G|--0~---|
D|-------|
A|-------|
E|-------|

little break with: "I have a friend With whom I like to spend"

E|------------------------|
B|------------------------|
G|------------------------|
D|------------------------|     2x
A|--2222-3333-0-----------|
E|-------------33333333---|

do this when it comes to: "Anytime I can"

E|--------------------------------------------------------|
B|--------------------------------------------------------|
G|--------------------------------------------------------|
D|----0--0--0--0---0--0--0--0---0--0--0--0---0--0--0--0---|
A|--2--2--2--2---3--3--3--3-------------------------------|
E|----------------------------3--3--3--3---2--2--2--2-----|

from "find with" to "I like sleeping in your bed"

E|--------------------------------------------------------|
B|--------------------------------------------------------|
G|--------------------------------------------------------|
D|----0--0--0--0---0--0--0--0---0--0--0--0---0--0--0--0---|     2x
A|--2--2--2--2---3--3--3--3-------------------------------|
E|----------------------------3--3--3--3---3--3--3--3-----|

starting with ""I like knowing what is going on inside your head"

E|--------------------------------------------------------|
B|--------------------------------------------------------|
G|--------------------------------------------------------|
D|----0--0--0--0---0--0--0--0---0--0--0--0---0--0--0--0---|
A|--2--2--2--2---3--3--3--3-------------------------------|
E|----------------------------3--3--3--3---2--2--2--2-----|

but it doesn't matter if you just stroke each note through the whole song like this:

E|--------------------------|
B|--------------------------|
G|--------------------------|
D|--------------------------|
A|--2222-3333---------------|
E|------------3333-(2222)---|

Outro

wait til she ends with the "badabada" then go along:

E|------------------------------------------------------|
B|------------------------------------------------------|
G|----------------------------------------------0-------|
D|----0--0--0--0---0--0--0--0---0--0--0--0---0-----0----|
A|--2--2--2--2---3--3--3--3-----------------------------|
E|----------------------------3--3--3--3---2--2--2--2---|

E|--------------------------------------------------------|
B|--------------------------------------------------------|
G|--------------------------------------------------------|
D|----0--0--0--0---0--0--0--0---0--0--0--0---0--0--0--0---|
A|--2--2--2--2---3--3--3--3-------------------------------|
E|----------------------------3--3--3--3---3--3--3--3-----|

if you like you can switch the second to:

E|--------------------------------------------------------|
B|--------------------------------------------------------|
G|------------------------------------0------------0------|
D|----0--0--0--0---0--0--0--0---0--0-----0---0--0-----0---|
A|--2--2--2--2---3--3--3--3-------------------------------|
E|----------------------------3--3--3--3---3--3--3--3-----|


That's it... enjoy!
Suggest correction
comments
print report bad tab
guest
You may want to rate the tab now too:
select rating
Wanna post a correction for this tab? Suggest correction