Oops, an error
Loading. Please wait.

Merry Happy tab

version 5
version 5

Whole song

163 views 1 this week
no commentswrite comment
1 2 3 4 5
2 more votes to show rating
add to favorites
×
Save as Personal and add changes to this tab that will be seen only by you. Learn more ›
×
You can save this tab as Personal to edit and correct it or add notes. All changes will be seen only by you. Learn more »
launch autoscroll
font size
0
reset
how to read this tab
guitar tuner
edit
Autoscroll
slow
fast
+/-
esc
set tempo
stop
Author
Difficulty
-------------------------------------------------------------------------------
                             Merry Happy - Kate Nash
-------------------------------------------------------------------------------
Tabbed by: mrbanaynaykinz

Tuning: Standard

e|-0-0-0-0-0-0-0-0-0-0-0-0-0-0-0-0-0-0-0-0-0-0-0-0-0-0-0-0-0-0-0-0-----------|
B|---------------------------------------------------------------------------|
G|-2-2-2-2-2-2-2-2-0-0-0-0-0-0-0-0-------------------------------------------|
D|---------------------------------4-4-4-4-4-4-4-4-2-2-2-2-2-2-2-2-----------|
A|---------------------------------------------------------------------------|
E|---------------------------------------------------------------------------|

e|-0-0-0-0-0-0-0-0-0-0-0-0-0-0-0-0-0-0-0-0-0-0-0-0-0-0-0-0-0-0-0-0-----------|
B|---------------------------------------------------------------------------|
G|-2-2-2-2-2-2-2-2-0-0-0-0-0-0-0-0-------------------------------------------|
D|---------------------------------4-4-4-4-4-4-4-4-2-2-2-2-2-2-2-2-----------|
A|---------------------------------------------------------------------------|
E|---------------------------------------------------------------------------|

  Watching me like you never watched no one don't 
e|-0----0----0----0----0----0----0----0--------------------------------------|
B|---------------------------------------------------------------------------|
G|-2----2----2----2----2----2----2----2--------------------------------------|
D|---------------------------------------------------------------------------|
A|---------------------------------------------------------------------------|
E|---------------------------------------------------------------------------|

  tell me that you didn't try to check out my bum cause I
e|-0----0----0----0----0----0----0----0--------------------------------------|
B|---------------------------------------------------------------------------|
G|-0----0----0----0----0----0----0----0--------------------------------------|
D|---------------------------------------------------------------------------|
A|---------------------------------------------------------------------------|
E|---------------------------------------------------------------------------|

  know that you did cause your friend told me that you
e|-0----0----0----0----0----0----0----0--------------------------------------|
B|---------------------------------------------------------------------------|
G|---------------------------------------------------------------------------|
D|-4----4----4----4----4----4----4----4--------------------------------------|
A|---------------------------------------------------------------------------|
E|---------------------------------------------------------------------------|

  liked it.
e|-0----0----0----0----0----0----0----0--------------------------------------|
B|---------------------------------------------------------------------------|
G|-2----2----2----2----2----2----2----2--------------------------------------|
D|---------------------------------------------------------------------------|
A|---------------------------------------------------------------------------|
E|---------------------------------------------------------------------------|

This pattern just continues for the rest of the song. If you were wondering, the chords are A-G-F#m-E.

************************************

            
            
Suggest correction
Creating personal tab
Creating personal tab
You can edit any tab online and save it as your Personal.

You can edit, replace or remove any tab part or add personal notes – all changes will be seen only by you.

Personal tabs can be accessed anytime from any device, even offline.
Learn more »
Give kudos to tab author, rate the tab!
1 2 3 4 5
comments
print report bad tab
guest
You may want to rate the tab now too:
select rating
Wanna post a correction for this tab? Suggest correction