Oops, an error
Loading. Please wait.

Mouthwash Tab

version 1
version 1

Intro

Interactive

8,346 views 1 this week
1 commentread comment
1 2 3 4 5
x 4
add to favorites
launch autoscroll
font size
0
reset
how to read this tab
guitar tuner
Autoscroll
slow
fast
+/-
esc
set tempo
stop
Help us to improve Ultimate-Guitar.com Take our survey!
×
Author
I think this is how the intro goes to Kate Nash's Mouthwash, I saw the Chords had only 
posted already

E|--------------------------------------------------------------------------|
B|-----------------------------------------------1--------------------2-----|
G|-----10-------10----------------------1-----1--------------3-----3--------|
D|-----11-------11---------11--------3-----3--------------4-----4-----------|
A|-----11-------11-----11---------3--------------------4--------------------|
E|--9--------9------9----------1--------------------2-----------------------|
Suggest correction
comments
print report bad tab
1 comment total.
0 reply
Alina37 112 Jun 23, 2008 06:57 PM

Good tab, but it's easier to play this at the beginning:


E|-----------------------------
B|----6--------6---------------
G|----6--------6-----------6---
D|----6--------6--------6------
A|--4--------4------4----------
E|-----------------------------

guest
You may want to rate the tab now too:
select rating
Wanna post a correction for this tab? Suggest correction