Oops, an error
Loading. Please wait.

Nicest Thing Tab

version 5
version 5

Whole song

Interactive

34,802 views 9 this week
2 commentsread comments
1 2 3 4 5
x 9
add to favorites
launch autoscroll
font size
0
reset
how to read this tab
guitar tuner
Autoscroll
slow
fast
+/-
esc
set tempo
stop
Help us to improve Ultimate-Guitar.com Take our survey!
×
Author
Difficulty
-------------------------------------------------------------------------------
                             Nicest Thing - Kate Nash
-------------------------------------------------------------------------------
Tabbed by: Louis Richards AKA MadClownDisease
Email: hereticbynature@hotmail.com

Tuning: Standard

This song is pretty piss easy, especially as a solo song as the main part played by Kate 
very simple and repeats throughout.
The only part that takes any concentration is the second background guitar, though this 
still a piece of piss.
All other tabs so far have missed out most (if not all) of the second guitar so here it 
in its entirety with lyrics.


Intro - second guitar (fades in from 0:00)
e|---7----7-----7---7-----7---7-------7-----7---7-|
B|------------------------------------------------|
G|-4----4---4-4---4---4-4---4---4-4-4---4-4---4---|
D|------------------------------------------------|
A|------------------------------------------------|
E|------------------------------------------------|

Main Part - Kate (this starts after the intro has gone through once (at 0:08) and 
throughout the whole song. The notes on the low E string are played slightly stacato.)
e|---------------------------------------------------------|
B|---------------------------------------------------------|
G|---------------------------------------------------------|
D|----0----0---0----0----0---0----0----0---0----0----0---0-|
A|---------------------------------------------------------|
E|-7----7----7---5----5----5---3----3----3---2----2----2---|

Intro cont- second guitar (from 0:08 when Kate comes in)
e|----7----7---7----7----7---7----7----7---7---------7---7-|
B|----------------------------------------------0----------|
G|-44---44---4---44---44---4---44---44---4---44---44---4---|
D|---------------------------------------------------------|
A|---------------------------------------------------------|
E|---------------------------------------------------------|

e|---------7---7----7----7---7----7----7---7----7----7---7-|
B|----0----------------------------------------------------|
G|-44---44---4---44---44---4---44---44---4---44---44---4---|
D|---------------------------------------------------------|
A|---------------------------------------------------------|
E|---------------------------------------------------------|


Verse - second guitar (0:26)
                All I know is that you're so nice
e|-----------------------------------------------------------------|
B|-----------------------------------------------------------------|
G|-4-4-4-4-4-4-4-4-6-6-6-6-6-6-6-6-7-7-7-7-7-7-7-7-7-7-7-7-6-6-6-6-|
D|-----------------------------------------------------------------|
A|-----------------------------------------------------------------|
E|-----------------------------------------------------------------|

               You're the nicest thing I've seen
e|-----------------------------------------------------------------|
B|-----------------------------------------------------------------|
G|-4-4-4-4-4-4-4-4-6-6-6-6-6-6-6-6-7-7-7-7-7-7-7-7-6-6-6-7-9-9-9-7-|
D|-----------------------------------------------------------------|
A|-----------------------------------------------------------------|
E|-----------------------------------------------------------------|

               I wish we could give it a go
e|-----------------------------------------------------------------|
B|-----------------------------------------------------------------|
G|-4-4-4-4-4-4-4-4-6-6-6-6-6-6-6-6-7-7-7-7-7-7-7-7-7-7-7-7-6-6-6-6-|
D|-----------------------------------------------------------------|
A|-----------------------------------------------------------------|
E|-----------------------------------------------------------------|

    See if we could be something
e|-----------------------------------------------------------------|
B|-----------------------------------------------------------------|
G|-4-4-4-4-4-4-4-4-6-6-6-6-6-6-6-6-7-7-7-7-7-7-7-7/2-2-2-2\9-9-9-7-|
D|-----------------------------------------------------------------|
A|-----------------------------------------------------------------|
E|-----------------------------------------------------------------|

               I wish i was your favourite girl
e|-----------------------------------------------------------------|
B|-----------------------------------------------------------------|
G|-4-4-4-4-4-4-4-4-6-6-6-6-6-6-6-6-7-7-7-7-7-7-7-7-7-7-7-7-6-6-6-6-|
D|-----------------------------------------------------------------|
A|-----------------------------------------------------------------|
E|-----------------------------------------------------------------|

             I wish you thought I was the reason you are in the world
e|-----------------------------------------------------------------|
B|-----------------------------------------------------------------|
G|-4-4-4-4-4-4-4-4-6-6-6-6-6-6-6-6-7-7-7-7-7-7-7-7-6-6-6-7-9-9-9-7-|
D|-----------------------------------------------------------------|
A|-----------------------------------------------------------------|
E|-----------------------------------------------------------------|

I wish my smile was your favourite kind of smile, I wish how i dressed was your 
kind of style,
e|-----------------------------------------------------------------|
B|-----------------------------------------------------------------|
G|-4-4-4-4-4-4-4-4-6-6-6-6-6-6-6-6-7-7-7-7-7-7-7-7-7p6-6-6-6h7-7-7-|
D|-----------------------------------------------------------------|
A|-----------------------------------------------------------------|
E|-----------------------------------------------------------------|

 I wish you couldn't figure me out and always want to know what i was about
e|-----------------------------------------------------------------|
B|-----------------------------------------------------------------|
G|-4-4-4-4-4-4-4-4-6-6-6-6-6-6-6-6-7-7-7-7-7-7-7-7/2-2-2-2\9-9-9-7-|
D|-----------------------------------------------------------------|
A|-----------------------------------------------------------------|
E|-----------------------------------------------------------------|

    I wish you'd hold my hand when I was upset    I wish you'd never
e|-----------------------------------------------------------------|
B|-----------------------------------------------------------------|
G|-4-4-4-4-4-4-4-4-4-4-4-4-4-4-4-4-4-4-4-4-4-4-4-4-4-4-4-4-6-6-6-6-|
D|-----------------------------------------------------------------|
A|-----------------------------------------------------------------|
E|-----------------------------------------------------------------|

 forget the look on my face when we first met.
e|-----------------------------------------------------------------|
B|-----------------------------------------------------------------|
G|-7-7-7-7-7-7-7-7-6-6-6-6-7-7-7-6-4-4-4-4-4-4-4-4-9-9-9-9-7-7-7-6-|
D|-----------------------------------------------------------------|
A|-----------------------------------------------------------------|
E|-----------------------------------------------------------------|

                        I wish you had a favourite beauty spot
e|-----------------------------------------------------------------|
B|-----------------------------------------------------------------|
G|-4-4-4-4-4-4-4-4-4-4-4-4-4-4-4-4-4-4-4-4-4-4-4-4-4-4-4-4-6-6-6-6-|
D|-----------------------------------------------------------------|
A|-----------------------------------------------------------------|
E|-----------------------------------------------------------------|

that you loved secretly 'cause it was on a hidden bit nobody else could see
e|-----------------------------------------------------------------|
B|-----------------------------------------------------------------|
G|-7-7-7-7-7-7-7-7-6-6-6-6-7-7-7-6-4-4-4-4-4-4-4-4-9-9-9-9-7-7-7-6-|
D|-----------------------------------------------------------------|
A|-----------------------------------------------------------------|
E|-----------------------------------------------------------------|

                       basically I wish that you loved me
e|-----------------------------------------------------------------|
B|-----------------------------------------------------------------|
G|-4-4-4-4-4-4-4-4-4-4-4-4-4-4-4-4-4-4-4-4-4-4-4-4-4-4-4-4-4-4-4-4-|
D|-----------------------------------------------------------------|
A|-----------------------------------------------------------------|
E|-----------------------------------------------------------------|

I wish that you needed me, i wish that you knew when i said two sugars actually I meant three
e|-----------------------------------------------------------------|
B|-----------------------------------------------------------------|
G|-4-4-4-4-4-7-6-4-6-6-6-6-6-7-6-4-7-7-7-7-7-7-7-7-6-6-6-7-7-7-7-7-|
D|-----------------------------------------------------------------|
A|-----------------------------------------------------------------|
E|-----------------------------------------------------------------|

I wish that without me your heart would break, Yeah i wish that without me you'd be 
the rest of your nights awake
e|-----------------------------------------------------------------|
B|-----------------------------------------------------------------|
G|-4-4-4-4-4-7-6-4-6-6-6-6-6-7-6-4-7-7-7-7-7-7-7-7-6-6-6-7-9-9-9-7-|
D|-----------------------------------------------------------------|
A|-----------------------------------------------------------------|
E|-----------------------------------------------------------------|

I wish that without me you couldn't eat, i wish i was the last thing on your mind before
e|-----------------------------------------------------------------|
B|-----------------------------------------------------------------|
G|-4-4-4-4-4-7-6-4-6-6-6-6-6-7-6-4-7-7-7-7-7-7-7-7-6-6-6-7-7-7-7-7-|
D|-----------------------------------------------------------------|
A|-----------------------------------------------------------------|
E|-----------------------------------------------------------------|

  you went to sleep.
e|-----------------------------------------------------------------|
B|-----------------------------------------------------------------|
G|-4-4-4-4-4-7-6-4-6-6-6-6-6-7-6-4-7-7-7-7-7-7-7-7-6-6-6-7-7-7-7-7-|
D|-----------------------------------------------------------------|
A|-----------------------------------------------------------------|
E|-----------------------------------------------------------------|

                          Look, all I know is that you're the nicest
e|-----------------------------------------------------------------|
B|-----------------------------------------------------------------|
G|-4-4-4-4-4-4-4-4-4-4-4-4-4-4-4-4-4-4-4-4-4-4-4-4-4-4-4-4-6-6-6-6-|
D|-----------------------------------------------------------------|
A|-----------------------------------------------------------------|
E|-----------------------------------------------------------------|

  thing I've ever seen and i wish we could see if we could be something
e|-----------------------------------------------------------------|
B|-----------------------------------------------------------------|
G|-7-7-7-7-7-7-7-7-6-6-6-6-7-7-7-6-2-2-2-2-2-2-2-2-9-9-9-9-7-7-7-6-|
D|-----------------------------------------------------------------|
A|-----------------------------------------------------------------|
E|-----------------------------------------------------------------|

                             Yeah i wish we could see if we could be
e|-----------------------------------------------------------------|
B|-----------------------------------------------------------------|
G|-4-4-4-4-4-4-4-4-4-4-4-4-4-4-4-4-4-4-4-4-4-4-4-4-4-4-4-4-6-6-6-6-|
D|-----------------------------------------------------------------|
A|-----------------------------------------------------------------|
E|-----------------------------------------------------------------|

  something...
e|-----------------------------------------------------------------|
B|-----------------------------------------------------------------|
G|-7-7-7-7-7-7-7-7-6-6-6-6-7-7-7-6-2-2-2-2-2-2-2-2-9-9-9-9-7-7-7-6-|
D|-----------------------------------------------------------------|
A|-----------------------------------------------------------------|
E|-----------------------------------------------------------------|

e|----|
B|----|
G|-4r-|
D|----|
A|----|
E|----|

and that's it, Kate ends a beat or two after the second guitar with a B one octave lower.


| /  slide up
| \  slide down
| h  hammer-on
| p  pull-off
| ~  vibrato
| +  harmonic
| x  Mute note
===============================================================================
Suggest correction
comments
print report bad tab
2 comments total.
0 reply
flabbiabi 10 Mar 09, 2011 11:23 AM

fab tab...but not happy about the swearing? It's unnecessary :/

0 reply
trent.henry.794 94 Jan 18, 2015 09:37 PM

I based a loop pedal arrangement of this tab and it sounds really good and really spot on to the recording. Thanks so much!

guest
You may want to rate the tab now too:
select rating
Wanna post a correction for this tab? Suggest correction