Oops, an error
Loading. Please wait.

You Were So Far Away Tab

3,784 views 3 this week
1 commentread comment
1 2 3 4 5
excellent!
x 2
add to favorites
launch autoscroll
font size
0
reset
how to read this tab
guitar tuner
Tab Pro tools
  • play this tab
  • loop segment
  • change instrument
  • show fretboard
  • metronome
Autoscroll
slow
fast
+/-
esc
set tempo
stop
Difficulty
novice
Strumming Patterns 
E
e|---------------------------|
b|---------------------------|
g|------1-----1-----1-----1--|
d|----2-----2-----2-----2----|
a|--2-----2-----2-----2------|
e|---------------------------|

A
e|---------------------------|
b|------2-----2-----2-----2--|
g|----2-----2-----2-----2----|
d|--2-----2-----2-----2------|
a|---------------------------|
e|---------------------------|

B
e|---------------------------|
b|---------------------------|
g|------4-----4-----4-----4--|
d|----4-----4-----4-----4----|
a|--2-----2-----2-----2------|
e|---------------------------|


Intro

e|---------------------------|---------------------------|
b|---------------------------|---------------------------|
g|------1-----1-----1-----1--|------4-----4-----4-----4--|
d|----2-----2-----2-----2----|----4-----4-----4-----4----|
a|--2-----2-----2-----2------|--2-----2-----2-----2------|
e|---------------------------|---------------------------|

e|---------------------------|---------------------------|
b|---------------------------|---------------------------|
g|------1-----1-----1-----1--|------1-----1--------------|
d|----2-----2-----2-----2----|----2-----2----------------|
a|--2-----2-----2-----2------|--2-----2-----2------------|
e|---------------------------|---------------------------|

(Use strumming patterns instead of chords starting here)

E                 A
You used to be so far away
    E           B
Now I can almost touch
E               A
I can taste the metal
         E         B
Feel the gun in my mouth
E                  A
Who will change my life?
E         B
How can I trust?
E                 A
Who will break my heart?
    E                   B
And how can I rest as I must?

E                 A
His leg twitches, he looks up
E                 B
Which one will he fuck?
E                A
Takes her by the hand and smiles
E            B
you are mine tonight,
E                A
Forget about the smell
E              B
Leave yourself behind
E                  A
There is something in the air
E                        B
That reminds you of your life


E                 A
You used to be so far away
    E           B
Now I can almost touch
E               A
I can taste the metal
         E         B
Feel the gun in my mouth
E                  A
Who will change my life?
E         B
How can I trust?
E                 A
Who will break my heart?
    E                   B
And how can I rest as I must?

(Repeat pattern und fade out)


For comments or improvements mail me: mail@leoniekrebs.de
comments
We did not receive enough feedback on this tab! Please rate:
print report bad tab
1 2 3 4 5
1 comment total.
+1 reply
SpellingD wrote on September 9 2010, 12:44 pm

The B you have played as this:


e|---------------------------|
b|---------------------------|
g|------4-----4-----4-----4--|
d|----4-----4-----4-----4----|
a|--2-----2-----2-----2------|
e|---------------------------|


should be a B7 played like:

e|---------------------------|
b|---------------------------|
g|------2-----2-----2-----2--|
d|----1-----1-----1-----1----|
a|--2-----2-----2-----2------|
e|---------------------------|


Good tab otherwise.

I want to post or [tab]
guest
You may want to rate the tab now too:
select rating
Please do not post tabs as comments. Select "correction" instead!