Oops, an error
Loading. Please wait.

Hallelujah Tab

version 1
version 1

Whole song

Interactive

6,794 views 15 this week
no commentswrite comment
1 2 3 4 5
please rate
add to favorites
launch autoscroll
font size
0
reset
how to read this tab
guitar tuner
Autoscroll
slow
fast
+/-
esc
set tempo
stop
Help us to improve Ultimate-Guitar.com Take our survey!
×
Author
Difficulty
Capo
intermediate
4th fret
-----------------------------------------------------------------------------
                             Hallelujah - Kate Voegele
-----------------------------------------------------------------------------
Tabbed by: Mitch P
E-mail:mitchp96@yahoo.com

Capo on 4th fret

Intro:

     [C]      [Am]            [C]         [Am]
e|-----------------------------------------------------|
B|-------1-----------1------------1-----------1--------|
G|-----0---0-------2---2--------0---0-------2---2------|
D|---2-----------2------------2-----------2------------|
A|-3---------2-0----------2-3---------2-0----------2---|
E|-----------------------------------------------------| x2


Verse:


...I've heard[G] secret[Em7]  David[G]      pleased[Em7]  you[C]      care[D]
e|------3-------------3-----------3---------------3-----------0-----------2--|
B|------3-------------3-----------3---------------3-----------1-------3---3--|
G|--0---0-0-------0---0-0-----0---0-0---------0---0-0-----0---0-0-------2-2--|
D|----0-----0-------3-----3-----0-----0-0-------3-----3-----2-----2-0--------|
A|------------------------------------------------------3--------------------|
E|-3----------3-0-----------3-------------3-2--------------------------------|


     do ya[G]     [Em7]         Well [G]   4[C]  5[D] minor[Em] major[C]
e|-----------3-----------2----------3-------------2---------0-----------0----|
B|-3---------3-------3---3-3--------3-------1-------3-------0-----------1----|
G|---2---0---0-0-------2-2---2--0---0-0-------0-2-------0---0-0-----0---0----|
D|---------0-----0-0--------------0-----0-2---------------2-----2-----2------|
A|----------------------------------------------------------------3----------|
E|-----3----------------------3-----------------------0----------------------|



  Baffled[D] comp.[E7] Hallelujah[Em x 2]
e|-----------------------0-----------0-----------0---------------------------|
B|-------3---2-----------0-----------0-----------0---------------------------|
G|-0---------3-3-----1---1-1-----0---0-0-----0---0-0-------------------------|
D|---2-0---2-2---2-----0-----0-----2-----2-----2-----2-----------------------|
A|---------------------------------------------------------------------------|
E|-----------------0-----------0-----------0---------------------------------|


Chorus ("Hallelujah 4 times"):


   [C x 2]                      [G x 2]                  [C x 2]
e|-------0-----------0-----------0-----------0-----------0-----------0-------|
B|-------1-----------1-----------0-----------0-----------1-----------1-------|
G|---0---0-0-----0---0-0-----0---0-0-----0---0-0-----0---0-0-----0---0-0-----|
D|-----2-----2-----2-----2-----2-----2-----2-----2-----2-----2-----------2---|
A|-3-----------3-----------------------------------3-----------3---2---------|
E|-------------------------0-----------0-------------------------------------|


      [G]      [D --> Dsus4 --> D] (changes with the hammer on and pull off)

e|-------3-----------2h3p2-------|
B|-------3-------3---3-----3-----|
G|---0---0-0-------2-2-----------|
D|-----0-------0-----------------|
A|-----------0-------------------|
E|-3-----------------------------|

| h   hammer-on
| p   pull-off
Suggest correction
What's this?
You can suggest a correction to this tab. Community and Mods will review your correction and vote to approve or reject it.
comments
We did not receive enough feedback on this tab! Please rate:
print report bad tab
1 2 3 4 5
guest
You may want to rate the tab now too:
select rating
Please do not post tabs as comments. Select "correction" instead!