Oops, an error
Loading. Please wait.

Terrified Tab

version 1
version 1

Whole song

Interactive

126,300 views 111 this week
3 commentsread comments
1 2 3 4 5
x 20
add to favorites
launch autoscroll
font size
0
reset
how to read this tab
guitar tuner
Autoscroll
slow
fast
+/-
esc
set tempo
stop
Help us to improve Ultimate-Guitar.com Take our survey!
×
Difficulty
Capo
novice
8th fret
Capo 8

G        - 320033
Dsus4/F# - 2x0233
Em7      - x22033
Cadd9    - x32033

[Intro]
           G             Dsus4/F#             Em7             Cadd9
e|------------------|------------------|--------------------|---x---||
B|-------3------3---|--------3------3--|--------3------3----|---3---||
G|---0-----0--------|----0-----0-------|----0-----0---------|---0---||
D|-----0-----0------|------0-----0-----|-------0-----0------|---2---||
A|------------------|------------------|--2-----------------|---3---||
E|-3----------------|--2---------------|--------------------|-------||

[Verse 1]
             G                 Dsus4/F#          Em7                   Cadd9
e|------------------|--------------------|--------------------|-------------------------|
B|-------3------3---|--------3------3----|--------3------3----|-------------3--------3--|
G|---0-----0--------|----0-----0---------|----0-----0---------|-------0-------0---------|
D|-----0-----0------|------0-----0-------|-------0-----0------|----------0--------0-----|
A|------------------|--------------------|--2-----------------|---3---------------------|
E|-3----------------|--2-----------------|--------------------|-------------------------|
   You --- by the     light  is            the  greatest         find --      In  a

e|------------------|--------------------|--------------------|-------------------------|
B|-------3------3---|----------3------3--|--------3------3----|-------------3--------3--|
G|---0-----0--------|------0-------0-----|----0-----0---------|-------0-------0---------|
D|-----0-----0------|----------0-----0---|-------0-----0------|----------0--------0-----|
A|------------------|--------------------|--2-----------------|---3---------------------|
E|-3----------------|--2-----------------|--------------------|-------------------------|
   world full of       wrong you're the    thing   that's        right ---   Finally

e|------------------|--------------------|--------------------|--------------------|
B|-------3------3---|----------3------3--|--------3------3----|-------------3------|
G|---0-----0--------|------0-------0-----|----0-----0---------|-------0------------|
D|-----0-----0------|----------0-----0---|-------0-----0------|----------0---------|
A|------------------|--------------------|--2-----------------|---3----------------|
E|-3----------------|--2-----------------|--------------------|--------------------|
   made it thru the   lonely to the       other                  side

[Chorus]
            G                   Dsus4/F#     Em7               Cadd9
You set it again my heart    in motion every word feels like a shooting star
           G           Dsus4/F#               Em7               Cadd9
I'm at the edge of my emotions  Watchin' the shadows burnin' in the dark

    G          Dsus4/F#
And I-I-I'm in love (I'm in love)
Em7          Cadd9
And I-I-I'm terrified
         G           
For the first time
        Dsus4/F# 
And the last time
        Em-Cadd9   G -Dsus4/F#-Em7-Cadd9
In my   on--ly     life

[Verse 2]
G-Dsus4/F#-Em7-Cadd9
And this could be good it's already better than that
And nothing's worse than knowing you're holding back
I could be all that you needed if you let me try

[Bridge]
Em7      Dsus4/F#        Cadd9
I   only said it 'Cause I mean it (ohhhh)
Em7      Dsus4/F#        Cadd9
I   only mean it 'Cause it's true (ohhhhh)

Em           Dsus4/F#            Cadd9
So don't you tear What i've been dreaming
          Em7                Dsus4/F#        
'Cause it fills me up and it holds me close
Cadd9
whenever I'm without you


************************************

| x  Dead note

************************************
Suggest correction
comments
print report bad tab
3 comments total.
+1 reply
djmcdolfin 10 Feb 13, 2013 12:50 AM

I just made a couple of modifications to the
previous one, and clarified the navigation

Capo 8

G - 320033
Dsus4/F# - 2x0233
Em7 - x22033
Cadd9 -x32033

INTRO:
G Dsus4/F# Em7 Cadd9
e|------------------|------------------|--------------------|---x---||
B|-------3----------|--------3---------|--------3-----------|---3---||
G|---0-----0----0---|----0-----0----0--|----0-----0-----0---|---0---||
D|-----0-----0------|------0-----0-----|-------0-----0------|---2---||
A|------------------|------------------|--------------------|---3---||
E|-3----------------|--2---------------|--0-----------------|-------||

Verse 1:
G Dsus4/F# Em7 Cadd9
e|------------------|--------------------|--------------------|-------------------------|
B|-------3----------|--------3-----------|--------3-----------|-------------3-----------|
G|---0-----0----0---|----0-----0----0----|----0-----0-----0---|-------0-------0------0--|
D|-----0-----0------|------0-----0-------|-------0-----0------|----------0--------0-----|
A|------------------|--------------------|--------------------|---3---------------------|
E|-3----------------|--2-----------------|--0-----------------|-------------------------|

You --- by the light is the greatest find -- In a

e|------------------|--------------------|--------------------|-------------------------|
B|-------3----------|---------3----------|--------3-----------|-------------3-----------|
G|---0-----0----0---|-----0------0----0--|----0-----0-----0---|-------0-------0------0--|
D|-----0-----0------|-------0-------0----|-------0-----0------|----------0--------0-----|
A|------------------|--------------------|--------------------|---3---------------------|
E|-3----------------|--2-----------------|--0-----------------|-------------------------|
world full of wrong you're the thing that's right --- Finally

e|------------------|--------------------|--------------------|--------------------|
B|-------3------3---|----------3------3--|--------3-----------|-------------3------|
G|---0-----0--------|------0-------0-----|----0-----0-----0---|-------0------------|
D|-----0-----0------|----------0-----0---|-------0-----0------|----------0---------|
A|------------------|--------------------|--------------------|---3----------------|
E|-3----------------|--2-----------------|--0-----------------|--------------------|
made it thru the lonely to the other side

Chorus:
G Dsus4/F# Em7 Cadd9
You set it again my heart in motion every word feels like a shooting star
G Dsus4/F# Em7 Cadd9
I'm at the edge of my emotions Watchin' the shadows burnin' in the dark

G Dsus4/F#
And I-I-I'm in love (I'm in love)
Em7 Cadd9
And I-I-I'm terrified
G
For the first time
Dsus4/F#
And the last time
Em-Cadd9 G -Dsus4/F#-Em7-Cadd9
In my on--ly life

Verse 2:
G Dsus4/F# Em7 Cadd9
And this could be good it's already better than that
G Dsus4/F# Em7 Cadd9
And nothing's worse than knowing you're holding back
G Dsus4/F# Em7 Cadd9
I could be all that you needed if you let me try

Chorus:

Bridge:

Em7 Dsus4/F# Cadd9
I only said it 'Cause I mean it (ohhhh)
Em7 Dsus4/F# Cadd9
I only mean it 'Cause it's true (ohhhhh)

Em Dsus4/F# Cadd9
So don't you tear What i've been dreaming
Em7 Dsus4/F#
'Cause it fills me up and it holds me close
Cadd9
whenever I'm without you

Chorus:

0 reply
michael.mejias. 10 Dec 27, 2013 09:19 PM

Nc one djmcdolfin i like the modification \m/ thanks

0 reply
naiko.chua 10 Feb 20, 2014 08:43 PM

Great job!

guest
You may want to rate the tab now too:
select rating
Wanna post a correction for this tab? Suggest correction