Oops, an error
Loading. Please wait.
We have Chord Pro version of Terrified.
It's the closest thing you can get to the original song and it has interactive parts. Check out the tab »
×

Terrified Tab

version 3
version 3

Whole song

Interactive

6,551 views 24 this week
no commentswrite comment
1 2 3 4 5
3 more votes to show rating
add to favorites
launch autoscroll
font size
0
reset
how to read this tab
guitar tuner
Autoscroll
slow
fast
+/-
esc
set tempo
stop
Author
Difficulty
Capo
novice
4th fret
www.facebook.com/Bring.Me.To.Hell.Herman

First Of all this is a fingerstyle. not the original.
Kung may mali po. comment nyo sa baba. at itama natin. 

Para ini saimo yeng tapos mayden halili na nag request kaning kanta.
rak n' roll lang. -justLovely

Terrified Arranged By: HNL4
(capo on 4th/5th/6th)

               Intro
e|-------------------------------|
B|----3--3----3--3-----3--3--3---|
G|--0--0----0--0-----0--0----0---|
D|---0--0----0--0-----0--0---2---|
A|------------------2--------3---|
E|-3-------2---------------------|

               Verse
e|---------------------------------------|
B|---3---------3--3--------3---1----0--0-|
G|-0----2p0------0---2---0---0---0----0--|
D|--0-----------0-----------0---0----0---|
A|-------------------------2---3----3----|
E|-3-----------2-------------------------|
  You, by the light is the greatest find


e|-------------------------------------------------------|
B|------3----3--------3----------------3-----1------0----|
G|-0--2-----0--2---0------0-2------0-------0-----0-------|
D|--------0-------------0----------------0-----0---------|
A|-------------------------------------2-----3------3----|
E|------3-------------2----------------------------------|
   In a world full of wrong you're the thing that's right


e|-----------------------------------------------------|
B|-0---3---1----0--0-------3---1----0-0--1---3-1---5/6-|
G|-------------0-0-----------------0-------------------|
D|-----------2-------------------2---------------------|
A|---------3----3--------------3------3------0---------|
E|-----------------------------------------------------|
   Finally made it through the lonely to the other side



               Chorus
e|--------------2------------------2--------------2--------------------------------|
B|--00--2---4--------4--2--------0---4------02-4-------4-----2----0--4hammer5-4----|
G|---------------------------------------------------------------------------------|
D|---------------------------------------------------------------------------------|
A|--------------2--------------------3------------2--------------------------------|
E|---------------------------------------------------------------------------------|
   You set it again, my heart's in motion , Every word feels like a shooting star
   I'm at the edge of my emotions Watching the shadows burning in the dark


e|-----6h7-6h7-6-----------6h7 6h7 6------|
B|-2-------------565----5------------5655-|
G|----------------------------------------|
D|----------------------------------------|
A|----------------------------------------|
E|----------------------------------------|
   And I'm in love     And I'm terrified


e|-------------------------------------------------------|
B|--0---2--4-----2-----0---2---4----2----0--2--4--2---0--|
G|-------------------------------------------------------|
D|-------------------------------------------------------|
A|---------2-------------------2---------------2---------|
E|----------------------------------------------------3--|
   For the first time and the last time  In my only life


*********Intro giraray yeng. pero ang 3 tapos 0 sa life ang puon***************

e|-----4--2----0-------------------------4-2---------------------|
B|-0-2-------------3-----0-2----3---0-2----------4pullof2---0----|
G|---------------------------------------------------------------|
D|---------------------------------------------------------------|
A|-----------------0-------0-------------------------------------|
E|-3------2-------------------------3------2---------------------|
   I only said it 'cause I mean it  I only mean 'cause it's true
   So don't you doubt what I've been dreaming



e|-----------------------------------------------------------------|
B|--0----2---4----2------0---4----2--------0h2---------------------|
G|-------------------4---------------4----------4---2--------------|
D|------------------------------------------------------2slide3--2-|
A|-----------2---------------2-------------------------------------|
E|-----------------------------------------------------------------|
   Cause it fills me up and holds me close whenever I'm without you

Suggest correction
Give kudos to tab author, rate the tab!
1 2 3 4 5
comments
print report bad tab
guest
You may want to rate the tab now too:
select rating
Wanna post a correction for this tab? Suggest correction