Oops, an error
Loading. Please wait.

Lesions In The Brain Tab

408 views 1 this week
no commentswrite comment
1 2 3 4 5
please rate
add to favorites
launch autoscroll
font size
0
reset
how to read this tab
guitar tuner
Autoscroll
slow
fast
+/-
esc
set tempo
stop
Help us to improve Ultimate-Guitar.com Take our survey!
×
The only place you can actually listen to this song is on Katie Jane Garside's myspace, 
is: www.myspace.com/katiejanegarside
Listen to the structure of the song to understand the pattern.
This is my first tab ever.
I kind of like Katie Jane Garside's music. So I decided to tab Lesions In The Brain. If 
find any errors or mistakes, or you would just like to contact me then email chemical _bees369@yahoo.co.uk

Standard Tuning: E A D g b e
--------------------------------


|-------------|-------------|
|-------------|-------------|
|-------------|-------------|
|----3-5--5---|----3-5------|
|--5----------|--5----------|
|----------—6-|---------3-6-|    x27


|-------------|-------------|
|-------------|-------------|
|----3--------|-------------|
|--5---5--5---|----3-5------|
|-------------|--5----------|
|----------—6-|---------3-6-|

|-------------|-------------|
|-------------|-------------|
|-------------|-------------|
|----3-5--5---|----3-5------|
|--5----------|--5----------|
|----------—6-|---------3-6-|

|-------------|-------------|
|-------------|-------------|
|----3--------|-------------|
|--5---5--5---|----3-5------|
|-------------|--5----------|
|----------—6-|---------3-6-|

|-------------|-------------|
|-------------|-------------|
|-------------|-------------|
|----3-5--5---|----3-5------|
|--5----------|--5----------|
|----------—6-|---------3-6-|    x11

|-------------|-------------|
|-------------|-------------|
|----3--------|-------------|
|--5---5--5---|----3-5------|
|-------------|--5----------|
|----------—6-|---------3-6-|

|-------------|-------------|
|-------------|-------------|
|-------------|-------------|
|----3-5--5---|----3-5------|
|--5----------|--5----------|
|----------—6-|---------3-6-|    x2

|-------------=---------|-----------------------|
|-----------------------|-----------------------|
|----3-----3------------|-----------------------|
|--5---5-5---5---3-5-5--|---3-5---3-5---3-5-----|
|--------------5--------|-5-----5-----5---------|
|----------—-----------6|-------------------3-6-|

|-------------|-------------|
|-------------|-------------|
|-------------|-------------|
|----3-5--5---|----3-5------|
|--5----------|--5----------|
|----------—6-|---------3-6-|    xrepeat til end.

That's it :)
That was pretty easy.
Any questions, just ask.


http://www.katiejanegarside.com/
Suggest correction
Give kudos to tab author, rate the tab!
1 2 3 4 5
comments
print report bad tab
guest
You may want to rate the tab now too:
select rating
Wanna post a correction for this tab? Suggest correction