Oops, an error
Loading. Please wait.

Negri Di Awan Tab

1,232 views 6 this week
no commentswrite comment
1 2 3 4 5
please rate
add to favorites
launch autoscroll
font size
0
reset
how to read this tab
guitar tuner
Autoscroll
slow
fast
+/-
esc
set tempo
stop
Help us to improve Ultimate-Guitar.com Take our survey!
×
Artist: Katon Bagaskara
Song: Negeri di Awan
Tabbed by: Hendry Tanuarto & Nicolas Wong


Intro:


E|-2-----2-|-4---5-7-|---------|-5-------|
B|-----3---|---------|-5-------|-----2---|
G|---2-----|-0-4-----|-----6---|---2---2-|
D|-0-------|---------|---6---6-|---------|
A|---------|---------|-4-------|-2-------|
E|---------|---------|---------|---------|
                                                  
E|---------|-2-------|-2-0-2-4-|-5-------|
B|-3-2-3-5-|---------|-3-2-3-5-|---6---0-|
G|-------2-|-----2---|---------|-----7---|
D|---4-4---|---4---4-|-4-2-4-6-|---------|
A|-2-------|---------|---------|---------|
E|---------|---------|---------|---------|


Body:


E|-0---5H7-|-5---------|-2---2H4-0-|
B|---------|-------2---|-----------|
G|---6-----|-----2---2-|---2-------|
D|---------|---4-------|-0---------|
A|-0-------|-----------|-----------|
E|---------|-----------|-----------|

E|---------|-0H2-0--------|---------|-----0-0-|
B|---0---2-|-------1P0----|-----0-2-|-3-------|
G|-2---1---|------------2-|---2-----|---------|
D|---------|--------------|---------|---4-----|
A|---------|-0------------|---------|-2-------|
E|---------|--------------|-2-------|---------|

E|---------|-----9-7-|----------|-----------9-|
B|---0-----|-7-------|---9-10-7-|-----10-12---|
G|-2---1---|---7-----|-9--------|----9--------|
D|-------2-|-0-------|----------|--11---------|
A|---------|---------|----------|-9-----------|
E|-0-------|---------|----------|-------------|
                                        
E|-2-------|-----------9-|-----7---------|
B|-----3---|-------7-----|----7--10-7-10-|
G|---2---2-|---------6---|---7-----------|
D|-0-------|-0-------6---|---------------|
A|---------|-----0-------|--7------------|
E|---------|-------7-----|---------------|

1st end:

E|---------0---------------0-------|
B|-------2---2-----------3---3-----|
G|-----4-------4-------4-------4---|
D|---2-----------2---3-----------3-|
A|-0---------------0---------------|
E|---------------------------------|

2st end:

E|-5---------5-|-79-7------|-----5---|-5-----7-|
B|-------0-2---|--8---10---|---5---5-|-----3---|
G|-----2-----6-|-79------9-|-6-------|---2-----|
D|---2---------|-----------|-5-------|-0-------|
A|-0-----------|-----------|---------|---------|
E|-------------|-----------|---------|---------|

E|-8-7-8-10-|-3-------|---5-7-8-|-1-------|-------3-|
B|----------|-----1---|---------|-----3---|---------|
G|-0---0----|---0---0-|---------|---2---2-|---------|
D|----------|---------|---------|-0-------|-----0---|
A|----------|-3-------|-3-------|---------|---2-----|
E|----------|---------|---------|---------|-3-------|

E|-5-3-----|-0-0-------|-3-----5-|-6-5-6-8-|-1-------|
B|-------1-|--3----1---|-----4---|---------|-----3---|
G|-----0---|-----0---0-|---5-----|---------|---3---3-|
D|---------|-----------|---------|---------|---------|
A|---3-----|---3-------|-3-------|---------|-1-------|
E|---------|-----------|---------|---------|---------|

E|---6----5-|-0-5-3-2-|-----0-2-|-3-----2-|-3-5---2---|
B|-------3--|-----3---|---3-----|-----3---|----5----3-|
G|------0---|---0-----|-2-------|---0-----|-----6---4-|
D|----------|-------0-|---------|-2-------|-----------|
A|-1---0----|---------|---------|---------|---------2-|
E|----------|---------|---------|---------|-----------|

E|-7-5-10-7-|-5-3-2-0-|---------|---------|-------|
B|--------8-|-7-5-3---|---1-----|---------|---0---|
G|----------|---------|-0---0---|-----0---|--2----|
D|----------|---------|---------|---0-----|-1-----|
A|----------|-------3-|---------|-2-----2-|-----1-|
E|----------|---------|-------3-|---------|-------|

3 end:

E|-5-------|---0-4-5-|---5-|
B|-------0-|-2-------|--2--|
G|-----2---|---------|-2---|
D|---2-----|---------|-----|
A|-0-------|---------|-----|
E|---------|---------|-----|
Suggest correction
Give kudos to tab author, rate the tab!
1 2 3 4 5
comments
print report bad tab
guest
You may want to rate the tab now too:
select rating
Please do not post tabs as comments. Select "correction" instead!