Oops, an error
Loading. Please wait.

Walking On Sunshine bass

version 1
version 1

Whole song

Interactive

20,156 views 21 this week
4 commentsread comments
1 2 3 4 5
x 4
add to favorites
×
Save as Personal and add changes to this tab that will be seen only by you. Learn more ›
×
You can save this tab as Personal to edit and correct it or add notes. All changes will be seen only by you. Learn more »
launch autoscroll
font size
0
reset
guitar tuner
edit
Autoscroll
slow
fast
+/-
esc
set tempo
stop
Author
Difficulty
Song:Walking On Sunshine
Artist:Katrina and The Waves
Tabbed by:Bass_Lord32
E-Mail:The_Stallion_32@live.com

Tuning:EADG

Intro/Verse:
G|------------------------------------|
D|------------------------------------|
A|---------6-6-6-6--8-8-8--6-6-6-6-6--|
E|--6-6-6-----------------------------|


Chorus:
G|----------------------------------------------||88------|(Last chorus only)
D|----------------------------------------------||--8-6---|
A|-----------66666666-88888888----------66666666||------6-|
E|--66666666-------------------66666666---------||--------|


Outro:
G|---------------------------------|    
D|-------------------------88------|x2 
A|---------6-6-6-6--8-8-8-8--8-6---|  
E|--6-6-6------------------------6-|   


G|-----------------------------------|
D|-----------------------------------|
A|---------6-6-6-6--8-8-8--6-6-6-6-6-|
E|--6-6-6----------------------------|


G|---------------------------------|
D|-------------------------88------|
A|---------6-6-6-6--8-8-8-8--8-6---|
E|--6-6-6------------------------6-|


G|-----------------------------------|
D|-----------------------------------|x3
A|---------6-6-6-6--8-8-8--6-6-6-6-6-|
E|--6-6-6----------------------------|


G|---------------------------------|
D|-------------------------88------|
A|---------6-6-6-6--8-8-8-8--8-6---|
E|--6-6-6------------------------6-|


G|-----------------------------------|
D|-----------------------------------|x3
A|---------6-6-6-6--8-8-8--6-6-6-6-6-|
E|--6-6-6----------------------------|


G|---------------------------------|
D|-------------------------88------|
A|---------6-6-6-6--8-8-8-8--8-6---|
E|--6-6-6------------------------6-| 



Intro x2
Verse x8
Chorus
Verse x10
Chorus
Verse x10
Chorus
Outro (In different versions the song fades or you just play until the singer stops.)


END




Suggest correction
Creating personal tab
Creating personal tab
You can edit any tab online and save it as your Personal.

You can edit, replace or remove any tab part or add personal notes – all changes will be seen only by you.

Personal tabs can be accessed anytime from any device, even offline.
Learn more »
comments
print report bad tab
4 comments total. Showing first comments.
0 reply
Bobert5 212 Jun 08, 2010 06:36 AM

in the chorus it goes; A# D# F D# F D#
so...
G|----------------------------------------------|
D|----------------------------------------------|
A|-----------66666666-88888888-66666666-88888888|
E|--66666666------------------------------------|

+1 reply
Jordo141 483 Apr 20, 2011 07:28 AM

Bobert is right about the chorus.

The tab is missing a lot of little fills...

One correction I've noticed is

G|--------|
D|88------|
A|--8-6---|
E|------6-|

G|---------|
D|88-------|
A|--8-6----|
E|------6-8|

+1 reply
bad_hobbit 33 Mar 26, 2016 08:47 AM

I've listened to this at half speed & with the EQ turned up to max bass, and the chorus is definitely a repeated F-D# (8-6) on the A string). There is no way that it starts on or includes the Bb (6 on the |E string) as shown.

guest
You may want to rate the tab now too:
select rating
Wanna post a correction for this tab? Suggest correction