Oops, an error
Loading. Please wait.

Et Tab

version 5
version 5

Whole song

Interactive

1,435 views 3 this week
no commentswrite comment
1 2 3 4 5
please rate
add to favorites
launch autoscroll
font size
0
reset
how to read this tab
guitar tuner
Autoscroll
slow
fast
+/-
esc
set tempo
stop
Help us to improve Ultimate-Guitar.com Take our survey!
×
Author
Difficulty
novice
This is E.T. By Katy Perry it is my first tab, so please don't bash. The only part I 
don't know yet is the bridge.

E|----------------------------------------|
B|----------------------------------------|
G|----------------------------------------|  x2
D|-6--6--6-6-6-6--6-5-6-5-6---6-5-6-5-6---|
A|--------------------------8-----------8-|
E|----------------------------------------|

E|----------------------------------------|
B|----------------------------------------|
G|----------------------------------------|
D|-6--6--6-6-6--6-5-6-5-6---6-5-6-5-6-----|
A|------------------------8-----------8---|
E|----------------------------------------|

E|---------------------------|
B|---------------------------|
G|---------------------------|
D|-6--6--6-6-6--6-5-6-5-6----|
A|------------------------8--|
E|---------------------------|

E|------------------------------------------------------------|
B|------------------------------------------------------------|
G|-------5---------5-----------5-------------------------8-8--|
D|-6-5-----8-6-5-----8-6-5-------8-6-5------------------------|
A|-----8---------8---------8-8---------8-8-8-8-8-8-8-8-8------|
E|------------------------------------------------------------|

E|----------------------------------------|
B|----------------------------------------|
G|----------------------------------------|  x2
D|-6--6--6-6-6-6--6-5-6-5-6---6-5-6-5-6---|
A|--------------------------8-----------8-|
E|----------------------------------------|

E|--------------------------|
B|--------------------------|
G|-------5-6-5-------5------|  x2
D|---6-8---------6-8---6----|
A|-8-----------8---------8--|
E|--------------------------|

E|----------------------------------------|
B|----------------------------------------|
G|----------------------------------------|
D|-6--6--6-6-6-6--6-5-6-5-6---6-5-6-5-6---|
A|--------------------------8-----------8-|
E|----------------------------------------|

E|---------------------------|
B|---------------------------|
G|---------------------------|
D|-6--6--6-6-6--6-5-6-5-6----|
A|------------------------8--|
E|---------------------------|

E|------------------------------------------------------------|
B|------------------------------------------------------------|
G|-------5---------5-----------5-------------------------8-8--|
D|-6-5-----8-6-5-----8-6-5-------8-6-5------------------------|
A|-----8---------8---------8-8---------8-8-8-8-8-8-8-8-8------|
E|------------------------------------------------------------|

E|----------------------------------------|
B|----------------------------------------|
G|----------------------------------------|  x2
D|-6--6--6-6-6-6--6-5-6-5-6---6-5-6-5-6---|
A|--------------------------8-----------8-|
E|----------------------------------------|

E|--------------------------|
B|--------------------------|
G|-------5-6-5-------5------|  x2
D|---6-8---------6-8---6----|
A|-8-----------8---------8--|
E|--------------------------|

(This is where the bridge comes in, but like I said, I don't know it yet.)

E|----------------------------------------|
B|----------------------------------------|
G|----------------------------------------|  x2
D|-6--6--6-6-6-6--6-5-6-5-6---6-5-6-5-6---|
A|--------------------------8-----------8-|
E|----------------------------------------|

E|--------------------------|
B|--------------------------|
G|-------5-6-5-------5------|
D|---6-8---------6-8---6----|
A|-8-----------8---------8--|
E|--------------------------|

E|---------------------------------------------------|
B|---------------------------------------------------|
G|-------5-6-5-------5-----------5------------5------|
D|---6-8---------6-8---6-----6-8---6------6-8---6----|
A|-8-----------8---------8-8---------8--8---------8--|
E|---------------------------------------------------|

E|--------------------------|
B|--------------------------|
G|-------5-6-5-------5------|
D|---6-8---------6-8---6----|
A|-8-----------8---------8--|
E|--------------------------|


Here are the words to the song. You can figure out what part of the tab is for what lines.

"E.T."

You're so hypnotizing
Could you be the devil?
Could you be an angel?

Your touch magnetizing
Feels like I am floating
Leaves my body glowing

They say, be afraid
You're not like the others
Futuristic lover
Different DNA
They don't understand you

[Pre-Chorus]
You're from a whole 'nother world
A different dimension
You open my eyes
And I'm ready to go
Lead me into the light

Kiss me, kiss me
Infect me with your love and
Fill me with your poison

Take me, take me
Wanna be a victim
Ready for abduction

Boy, you're an alien
Your touch so foreign
It's supernatural
Extraterrestrial

[Verse 2]
You're so supersonic
Wanna feel your powers
Stun me with your lasers
Your kiss is cosmic
Every move is magic

[Pre-Chorus]
You're from a whole 'nother world
A different dimension
You open my eyes
And I'm ready to go
Lead me into the light

[Chorus]
Kiss me, kiss me
Infect me with your love and
Fill me with your poison

Take me, ta-ta-take me
Wanna be a victim
Ready for abduction

Boy, you're an alien
Your touch so foreign
It's supernatural
Extraterrestrial

[Bridge]
This is transcendental
On another level
Boy, you're my lucky star

I wanna walk on your wave length
And be there when you vibrate
For you I'll risk it all
All

[Chorus]
Kiss me, kiss me
Infect me with your love and
Fill me with your poison

Take me, ta-ta-take me
Wanna be a victim
Ready for abduction

Boy, you're an alien
Your touch so foreign
It's supernatural
Extraterrestrial

Extraterrestrial
Extraterrestrial

Boy, you're an alien
Your touch so foreign
It's supernatural
Extraterrestrial
Suggest correction
What's this?
You can suggest a correction to this tab. Community and Mods will review your correction and vote to approve or reject it.
comments
We did not receive enough feedback on this tab! Please rate:
print report bad tab
1 2 3 4 5
guest
You may want to rate the tab now too:
select rating
Please do not post tabs as comments. Select "correction" instead!