Oops, an error
Loading. Please wait.

Fingerprints Tab

6,970 views 3 this week
no commentswrite comment
1 2 3 4 5
excellent!
x 3
add to favorites
launch autoscroll
font size
0
reset
how to read this tab
guitar tuner
Autoscroll
slow
fast
+/-
esc
set tempo
stop
Help us to improve Ultimate-Guitar.com Take our survey!
×
Author
KATY PERRY - FINGERPRINTS

VERSE
e|-----------------------------------------------|
B|-----------------------------------------------|
G|-----------------------------------------------|   3x
D|-----------------------------------------------|
A|--5---------7---------4--------5---------------|
E|--3—--------5---------2--------3---------------|

REFRAIN
e|-------------------------------------------|
B|-------------------------------------------|
G|-------------------------------------------|   2x
D|-------------------------------------------|
A|--7--------9---------5---------------------|
E|--5--------7---------3---------------------|

CHORUS
e|---------------------------------------------------|
B|---------------------------------------------------|
G|--------------------7------------------------------|
D|----9-------5-------7-------7---8------------------| 3X
A|----9-------5-------5-------7---8------------------|
E|----7-------3---------------5---6------------------|
I’m leaving my fingerprints.....
e|-----------------------------------------------|
B|-----------------------------------------------|
G|-----------------------------------------------|
D|-----------------------------------------------|
A|---5------7------4-------5---------------------|
E|---3------5------2-------3---------------------|

REPEAT VERSE
REPEAT CHORUS

BRIDGE
e|------------------|--------------|--------------------------|
B|------------------|--------------|--------------------------|
G|------------------|-----------7--|--------------------------|
D|---9----7----5----|-9----7----7--|--9----7----5-----7-------|
A|---9----7----5----|-9----7----5--|--9----7----5-----7-------|
E|---7----5----3----|-7----5-------|--7----5----3-----5-------|

REPEAT CHORUS

Suggest correction
Give kudos to tab author, rate the tab!
1 2 3 4 5
comments
print report bad tab
guest
You may want to rate the tab now too:
select rating
Please do not post tabs as comments. Select "correction" instead!