Oops, an error
Loading. Please wait.

Firework Bass Tab

version 2
version 2

Whole song

Interactive

3,342 views 12 this week
1 commentread comment
1 2 3 4 5
excellent!
x 2
add to favorites
launch autoscroll
font size
0
reset
guitar tuner
Tab Pro tools
  • play this tab
  • loop segment
  • change instrument
  • show fretboard
  • metronome
×
Best way to learn
"Firework"
Autoscroll
slow
fast
+/-
esc
set tempo
stop
Contributor
Difficulty
Hi this is my first bass tab, i decided to figure out the notes of what 
Katy is actually singing in this song as its a little bit more fun
to play it like that, but if you want to know, the root notes are G#, A#, F and C# 
repeating through the entire song. You will have to figure out the rythm yourself for this tab. 

Tuning: EADG (Standard Tuning)

Firework- Katy Perry

Verse 1 (0:08) (frets are high,ex:10 as in ten not -1-0-)
G|----8-8---------|----------------|----------------|-----------------|\
D|-10-----10-10---|----------------|----------------|-----------------| |X2
A|----------------|-11-13-13-11-11-|-11-13-13-11-11-|11-11-11-13-15-15| |
E|----------------|----------------|----------------|-----------------|/

Verse Part 2 (0:23)

G|---13-13--------|-----------13-13|--13-13---------|------------------|
D|-13-----13-13---|13-13-13-15-----|13-----13-13-13-|15-13-13--15-13-13|
A|----------------|----------------|----------------|--------15--------|
E|----------------|----------------|----------------|------------------|

G|----------------|----------------|-----------------|------------------|
D|---13-13--------|----------------|-----------------|------------------|
A|-15-----15-15---|-11-13-13-11-11-|11-11-13-13-11-11|11-13-13-11-13-15-|
E|----------------|----------------|-----------------|------------------|

Prechorus 1 (0:38)

G|----------------|-------------13-|---15--13-15-17--|-13-12-----|
D|-----------13---|11-13-15--------|13---------------|-------15--|
A|13-16---15------|-----------11---|-----------------|-----------|
E|----------------|----------------|-----------------|-----------|

Chorus 1 (0:53)

G|--20-18-17-15-15|--------13--17--|-20-18-17-15-15|--------13--17--|\
D|----------------|----------------|---------------|----------------| |
A|18--------------|----------------|---------------|----------------| |
E|----------------|----------------|---------------|----------------| |
                                                                      |X2
G|--20-18-17-15-15|-15-15----------|-20-18-17-15-15|15-15/17--------| |
D|----------------|----------------|---------------|----------------| |
A|----------------|--------18-18---|---------------|----------------| |
E|----------------|----------------|---------------|----------------|/


Repeat Verse 1 for Verse 2 (1:25)

Repeat Chorus for Chorus 2


Bridge (2:43)

G|13-12---13-13-13|13-13-13-13-12--|13-13-13-13-13-|13-17-15-13----13|
D|------13--------|--------------13|---------------|-----------------|
A|----------------|----------------|---------------|-----------------|
E|----------------|----------------|---------------|-----------------|

G|13-13-13-13-13--|17-15-12--------|
D|----------------|----------------|
A|----------------|----------------|
E|----------------|----------------|

Repeat Chorus for Chorus 3

Outro (3:30)

G|13-12---13-13-13|13-13-13-13-12--|13-------------|\
D|------13--------|--------------13|---------------| |X2
A|----------------|----------------|---------------| |
E|----------------|----------------|---------------|/
comments
We did not receive enough feedback on this tab! Please rate:
print report bad tab
1 2 3 4 5
1 comment total.
0 reply
CoheedFan28 wrote on October 5 2011, 04:26 pm

Nice tab my friend!

I want to post or [tab]
guest
You may want to rate the tab now too:
select rating
Please do not post tabs as comments. Select "correction" instead!