Oops, an error
Loading. Please wait.

Firework Tab

version 5
version 5

Whole song

Interactive

Video

1 view 1 this week
no commentswrite comment
1 2 3 4 5
3 more votes to show rating
add to favorites
launch autoscroll
font size
0
reset
how to read this tab
guitar tuner
Autoscroll
slow
fast
+/-
esc
set tempo
stop
Help us to improve Ultimate-Guitar.com Take our survey!
×
About this tab version
This is just the melody played on guitar single note. Needed to write it for the purpose of a music lesson. Was this info helpful? Yes No
[Verse]

e|---------------------------------------------------------------------------|
B|-0--3-3-0-0-------------------------------------0-1-0----------------------|
G|--------------2-2-2-0-0---0-0-2-2-0-0---0-0-2-2----------------------------|
D|---------------------------------------------------------------------------|
A|---------------------------------------------------------------------------|
E|---------------------------------------------------------------------------|

e|---------------------------------------------------------------------------|
B|-0--3-3-0-0--------------------------------------0-1-0---------------------|
G|---------------0-2-2-0-0---0-0-2-2-0-0---0-0-2-2---------------------------|
D|---------------------------------------------------------------------------|
A|---------------------------------------------------------------------------|
E|---------------------------------------------------------------------------|

e|----3-3---------------3-3----3-3-------------------------------------------|
B|-3------3-3---3-3-3-5------3-----3-3-3-5-3-3-0-5-3-3-----------------------|
G|---------------------------------------------------------------------------|
D|---------------------------------------------------------------------------|
A|---------------------------------------------------------------------------|
E|---------------------------------------------------------------------------|

e|---------------------------------------------------------------------------|
B|-0--3-3-0-0----------------------------------------------------------------|
G|---------------0-2-2-0-0---0-0-2-2-0-0---0-0-2-0-0-------------------------|
D|---------------------------------------------------------------------------|
A|---------------------------------------------------------------------------|
E|---------------------------------------------------------------------------|

[Pre chorus]

e|----------------------------0---0--3--------5---3-3-7--3-3-0---------------|
B|--0-----1-----0--3------1---------------3----------------------------------|
G|------2--------------------------------------------------------------------|
D|---------------------------------------------------------------------------|
A|---------------------------------------------------------------------------|
E|---------------------------------------------------------------------------|

 [Chorus]

e|-0-10-8-7-----------7-----0-10-8-7------------7---0-10-8-7-----------------|
B|----------10-10---8----------------10-10---8---------------10-10--10--10---|
G|---------------------------------------------------------------------------|
D|---------------------------------------------------------------------------|
A|---------------------------------------------------------------------------|
E|---------------------------------------------------------------------------|

 [Chorus]

e|-0-0-10-8-7----------------------------------------------------------------|
B|------------10-10--10-8----------------------------------------------------|
G|---------------------------------------------------------------------------|
D|---------------------------------------------------------------------------|
A|---------------------------------------------------------------------------|
E|---------------------------------------------------------------------------|
Suggest correction
Give kudos to tab author, rate the tab!
1 2 3 4 5
comments
print report bad tab
guest
You may want to rate the tab now too:
select rating
Wanna post a correction for this tab? Suggest correction