Oops, an error
Loading. Please wait.

Futuristic Lover Tab

version 2
version 2

Whole song

1,282 views 1 this week
no commentswrite comment
1 2 3 4 5
please rate
add to favorites
launch autoscroll
font size
0
reset
how to read this tab
guitar tuner
Autoscroll
slow
fast
+/-
esc
set tempo
stop
Help us to improve Ultimate-Guitar.com Take our survey!
×
Author
x-tasha-x 1,722
-- Katy Perry – Futuristic Lover --

Drop D tuning DADGBE

tabbed by x-tasha-x


INTRO:
guitar 1:
E||------------------------------------------------|
B||------------------------------------------------|
G||----------------------------------------18-17---|
D||-15 15 15 15 15 15 15 15 15 15 15 15-15------18-|
A||------------------------------------------------|
D||------------------------------------------------|

guitar 2:(palm mute)
E||------------------|
B||------------------|
G||------------------|
D||-3333333333333333-|
A||-3333333333333333-|
D||-3333333333333333-|


VERSE:
guitar 1:
E||-------------------|
B||-------------------|
G||---------18-17-----|x4
D||-15(x29)------18---|
A||-------------------|
D||-------------------|

guitar 2:(palm mute)
E||----------------------------------|
B||----------------------------------|
G||----------------------------------|x4
D||-33333333333333333333333333333333-|
A||-33333333333333333333333333333333-|
D||-33333333333333333333333333333333-|


PRE CHORUS:
guitar 1:
E||-------------------|
B||-------------------|
G||---------18-17-----|x2
D||-15(x29)------18---|
A||-------------------|
D||-------------------|

guitar 2:
E||----------------------------------------|
B||----------------------------------------|
G||-6~---8~------------6~---8~---10~-------|
D||-6~---8~---8~-------6~---8~---10~-------|
A||-4~---6~---8~-------4~---6~---8 ~-------|
D||-----------8~---------------------------|


CHORUS:
guitar 1:
E||-------------------|  |------------------------------------------------|
B||-------------------|  |------------------------------------14-14-14-14-|
G||---------18-17-----|x2|-17 17 17 17 17 17 17 17-15 15 15 15------------|
D||-15(x29)------18---|  |------------------------------------------------|
A||-------------------|  |------------------------------------------------|
D||-------------------|  |------------------------------------------------|
then:
E||-------------------------------------------------|
B||-------------------------------------------------|
G||-17 17 17 17 17 17 17 17-13 13 13 13 13 13 13 13-|
D||-------------------------------------------------|
A||-------------------------------------------------|
D||-------------------------------------------------|

guitar 2:
E||---------------------|
B||---------------------|
G||-6666----------------|x4
D||-6666-1111-3333-6666-|
A||-4444-1111-3333-6666-|
D||------1111-3333-6666-|


BEFORE VERSE 2:
guitar 1:
E||---------------------------------------------|
B||---------------------------------------------|
G||---------------------------------------------|
D||-15 15 15 15 15 15 15 15 15 15 15 15 15 15---|
A||---------------------------------------------|
D||---------------------------------------------|

guitar 2:(palm mute)
E||------------------|
B||------------------|
G||------------------|
D||-33333333333333---|
A||-33333333333333---|
D||-33333333333333---|


VERSE 2(same as verse 1)

PRE CHORUS
CHORUS

BRIDGE:
guitar 1:
E||-------------------13~------11~--------------------------13~------11~------| 
B||-14~------11~----------------------13~-14~------11~------------------------|  
G||---------------------------------------------------------------------------|
D||---------------------------------------------------------------------------|  
A||---------------------------------------------------------------------------| 
D||---------------------------------------------------------------------------|  

guitar 2:
E||---------------------------------------------------------------------------| 
B||---------------------------------------------------------------------------|  
G||-6~-------------------------8~-----5~--6~-------------------------8~-------|
D||-6~-------8~-------3~-------8~-----5~--6~-------8~-------3~-------8~-------|  
A||-4~-------8~-------3~-------6~-----3~--4~-------8~-------3~-------6~-------| 
D||----------8~-------3~---------------------------8~-------3~----------------|


END WITH CHORUS:(X2)
guitar 1:
E||-------------------|  |------------------------------------------------|
B||-------------------|  |------------------------------------14-14-14-14-|
G||---------18-17-----|x2|-17 17 17 17 17 17 17 17-15 15 15 15------------|
D||-15(x29)------18---|  |------------------------------------------------|
A||-------------------|  |------------------------------------------------|
D||-------------------|  |------------------------------------------------|
then:
E||-------------------------------------------------|
B||-------------------------------------------------|
G||-17 17 17 17 17 17 17 17-13 13 13 13 13 13 13 13-|
D||-------------------------------------------------|
A||-------------------------------------------------|
D||-------------------------------------------------|

guitar 2:
E||---------------------|
B||---------------------|
G||-6666----------------|x4
D||-6666-1111-3333-6666-|
A||-4444-1111-3333-6666-|
D||------1111-3333-6666-|
Suggest correction new What's this?
You can suggest a correction to this tab. Community and Mods will review your correction and vote to approve or reject it.
comments
We did not receive enough feedback on this tab! Please rate:
print report bad tab
1 2 3 4 5
guest
You may want to rate the tab now too:
select rating
Please do not post tabs as comments. Select "correction" instead!