Oops, an error
Loading. Please wait.

Hummingbird Heartbeat Tab

15,989 views 6 this week
1 commentread comment
1 2 3 4 5
accurate
x 6
add to favorites
launch autoscroll
font size
0
reset
how to read this tab
guitar tuner
Autoscroll
slow
fast
+/-
esc
set tempo
stop
Help us to improve Ultimate-Guitar.com Take our survey!
×
Author
-- Katy Perry – Hummingbird Heartbeat --

standard tuning EADGBE

tabbed by x-tasha-x

listen to the song for the strumming pattern =D

INTRO:
guitar 1:
E||-------------------------| |-17~-------------17~-----------|
B||-------------------------|T|-----18~-17~-13~-----17~-18~---|
G||-3~----5~----------------|H|-------------------------------|
D||-3~----5~----7~----8~----|E|-------------------------------|
A||-1~----3~----7~----8~----|N|-------------------------------|
E||---- --------5~----6~----| |-------------------------------|

guitar 2:
E||-------------------------|
B||-------------------------|
G||-3~----5~----------------|x2
D||-3~----5~----7~----8~----|
A||-1~----3~----7~----8~----|
E||---- --------5~----6~----|
        

VERSE:
you make me feel like...
guitar 1:
E||-----------------------|  |-2--4--4--4--4---2--2--2--2--2----|
B||-----------------------|  |--2--2--2--2--2---2--2--2--2--2---|
G||-3-—5------------------|x2|----------------------------------|x2
D||-3-—5-------7--8-------|  |----------------------------------|
A||-1—-3-------7--8-------|  |----------------------------------|
E||------------5--6-------|  |----------------------------------|

guitar 2:
E||------------------------------------------|
B||------------------------------------------|
G||-3-33--5-55555555555----------------------|x4
D||-3-33--5-55555555555--7-77--8-88888888888-|
A||-1-11--3-33333333333--7-77--8-88888888888-|
E||----------------------5-55--6-66666666666-|
      ..    ...........    ..    ...........


PRE CHORUS:
even when seasons change...
guitar 1:
E||-14~---------18~----------|
B||-------18~---------16~----|
G||--------------------------|
D||--------------------------|
A||--------------------------|
E||--------------------------|

guitar 2:
E||--------------------------------------------------|
B||--------------------------------------------------|
G||-7-7777777--5-5555555-------------3-333-----------|
D||-7-7777777--5-5555555--3-3333333--3-333-----------|
A||-5-5555555-—3-3333333--3-3333333--1-111-1-2-1-----|
E||-----------------------1-1111111--------------3-1-|
      .......    .......    .......    ...


CHORUS:
You give me that hummingbird heartbeat...
guitar 1:
E||-2—-2--2---2-4--2---|  |-2--4--4--4--4---2--2--2--2--2----|
B||--2--2--2-----------|x4|--2--2--2--2--2---2--2--2--2--2---|
G||--------------------|  |----------------------------------|
D||--------------------|  |----------------------------------|
A||--------------------|  |----------------------------------|
E||--------------------|  |----------------------------------|

guitar 2:
E||--------------------------------------------|
B||--------------------------------------------|
G||-3-3333333--5-5555555-----------------------|x2
D||-3-3333333--5-5555555--7-7777777--8-8888888-|
A||-1-1111111--3-3333333--7-7777777--8-8888888-|
E||-----------------------5-5555555--6-6666666-|
      .......    .......    .......    .......

then:
E||------------------------------------------|
B||------------------------------------------|
G||-3-33--5-55555555555----------------------|
D||-3-33--5-55555555555--7-77--8-88888888888-|
A||-1-11--3-33333333333--7-77--8-88888888888-|
E||----------------------5-55--6-66666666666-|
      ..    ...........    ..    ...........


VERSE 2(same as verse 1)

PRE CHORUS

CHORUS


BRIDGE:
you love me you love me...
guitar 1&2:
E||------------------------------------------------------------------------|
B||------------------------------------------------------------------------|
G||------------------------------------------------------6-666666666666666-|
D||-2-22222222222--4-444444444444444--2-222222222222222--6-666666666666666-|
A||-2-22222222222--4-444444444444444--2-222222222222222--4-444444444444444-|
E||-0-00000000000-—2-222222222222222--0-000000000000000--------------------|
      ...........    ...............    ...............    ...............

then:
guitar 1:
E||---------------------------11~---9~-----11-9-11-14--16--14-16-18~-|
B||------------------------------------------------------------------|
G||-10-9-5-7~--------------------------------------------------------|
D||---------------3~-------------------------------------------------|
A||------------------5~----------------------------------------------|
E||------------------------------------------------------------------|

guitar 2:
E||--------------------------------------------|
B||--------------------------------------------|
G||-3-3333333--5-5555555-----------------------|x2
D||-3-3333333--5-5555555--7-7777777--8-8888888-|
A||-1-1111111--3-3333333--7-7777777--8-8888888-|
E||-----------------------5-5555555--6-6666666-|
      .......    .......    .......    .......


LAST CHORUS:
You give me that hummingbird heartbeat...
guitar 1:
E||-2—-2--2---2-4--2---|  |-2--4--4--4--4---2--2--2--2--2----|
B||--2--2--2-----------|x4|--2--2--2--2--2---2--2--2--2--2---|x2
G||--------------------|  |----------------------------------|
D||--------------------|  |----------------------------------|
A||--------------------|  |----------------------------------|
E||--------------------|  |----------------------------------|

guitar 2:
E||--------------------------------------------|
B||--------------------------------------------|
G||-3-3333333--5-5555555-----------------------|x2
D||-3-3333333--5-5555555--7-7777777--8-8888888-|
A||-1-1111111--3-3333333--7-7777777--8-8888888-|
E||-----------------------5-5555555--6-6666666-|
      .......    .......    .......    .......

then:
E||------------------------------------------|
B||------------------------------------------|
G||-3-33--5-55555555555----------------------|
D||-3-33--5-55555555555--7-77--8-88888888888-|
A||-1-11--3-33333333333--7-77--8-88888888888-|
E||----------------------5-55--6-66666666666-|
      ..    ...........    ..    ...........
Suggest correction
What's this?
You can suggest a correction to this tab. Community and Mods will review your correction and vote to approve or reject it.
comments
print report bad tab
1 comment total.
0 reply
tonyp68 12 wrote on March 11 2015, 09:23 am

The song's intro opens with flageolets.
1 = 1st string (E)7th fret.
2 = 3rd string (G)5th fret.
3 = 2nd string (B)7th fret.
4 = 4th string (D)5th fret.

Then in the order 1-3-2.
gone check the rest later.

guest
You may want to rate the tab now too:
select rating
Please do not post tabs as comments. Select "correction" instead!