Oops, an error
Loading. Please wait.

Mannequin Tab

version 1
version 1

Whole song

12,027 views 1 this week
no commentswrite comment
1 2 3 4 5
3 more votes to show rating
add to favorites
launch autoscroll
font size
0
reset
how to read this tab
guitar tuner
Autoscroll
slow
fast
+/-
esc
set tempo
stop
Help us to improve Ultimate-Guitar.com Take our survey!
×
Difficulty
Capo
intermediate
3rd fret
this is first tabb...lol

capo on 3rd frettt


i count the fret above the capo

verses:
e-------------------------------------------------------------------------|
b-------------10-----------10---------------------------------------------|
g-------------11-----5-----11---------------------------------------------|
d--12---------12-----5-----12-----12--------------------------------------|
a--10-----------------------------10--------------------------------------|
e-------------------------------------------------------------------------|

chorus:
e--------------------------|
b--------------------------|
g---------------------5----|
d----12-----9----7----5----|
a----10-----7----5---------|
e--------------------------|


the ending is the same as the chorus...please rate and let me know how i did thankssss
Suggest correction
Give kudos to tab author, rate the tab!
1 2 3 4 5
comments
print report bad tab
guest
You may want to rate the tab now too:
select rating
Wanna post a correction for this tab? Suggest correction