Oops, an error
Loading. Please wait.

Swish Swish tab

88 views 42 this week
no commentswrite comment
1 2 3 4 5
3 more votes to show rating
add to favorites
×
Save as Personal and add changes to this tab that will be seen only by you. Learn more ›
×
You can save this tab as Personal to edit and correct it or add notes. All changes will be seen only by you. Learn more »
launch autoscroll
font size
0
reset
how to read this tab
guitar tuner
edit
Autoscroll
slow
fast
+/-
esc
set tempo
stop
[Intro]

N.C.
They know what is what
N.C.
They don't know what is what
N.C.
They just strut, what the fuck?

Fm                 Eb
A tiger don't lose no sleep
             Ab              Eb
Don't need opinions from a shellfish
       Cm
Or a sheep    
Eb                Ab
Don't you come for me
         Eb
No, not today


[Verse]

  pm      pm pm    pm      pm  pm       [x4]
e|-------------------------------------------------------------------------|
B|-------------------------------------------------------------------------|
G|----10---------------10--------------------------------------------------|
D|--------10---------------10----------------------------------------------|
A|-8----------8----8-8---------8-------------------------------------------|
E|-------------------------------------------------------------------------|
            
You're calculated, I got your number
'Cause you're a joker                        
And I'm a courtside killer queen
And you will kiss the ring
You best believe


[Pre-Chorus]

Fm             Eb                 Ab
So keep calm, honey, I'ma stick around
                 Bbm             Fm
For more than a minute, get used to it
           Eb                        Ab
Funny my name keeps comin' out your mouth
                Bbm
'Cause I stay winning, lay 'em up like
N.C.
Swish swish bish 


[Chorus]

  pm      pm pm    pm      pm  pm      [x4]
e|-------------------------------------------------------------------------|
B|-------------------------------------------------------------------------|
G|----10---------------10--------------------------------------------------|
D|--------10---------------10----------------------------------------------|
A|-8----------8----8-8---------8-------------------------------------------|
E|-------------------------------------------------------------------------|

Another one in the basket
Can't touch this
Another one in the casket

[Verse]

  pm      pm pm    pm      pm  pm    [x2]
e|-------------------------------------------------------------------------|
B|-------------------------------------------------------------------------|
G|----10---------------10--------------------------------------------------|
D|--------10---------------10----------------------------------------------|
A|-8----------8----8-8---------8-------------------------------------------|
E|-------------------------------------------------------------------------|
               
Your game is tired
You should retire
You're about as cute as...
N.C.               
An old coupon, expired

  pm      pm pm    pm      pm  pm     [x2]
e|-------------------------------------------------------------------------|
B|-------------------------------------------------------------------------|
G|----10---------------10--------------------------------------------------|
D|--------10---------------10----------------------------------------------|
A|-8----------8----8-8---------8-------------------------------------------|
E|-------------------------------------------------------------------------|     

And karma's not a liar
She keeps receipts


[Pre-Chorus]

Fm             Eb                 Ab
So keep calm, honey, I'm-a stick around
                 Bbm             Fm
For more than a minute, get used to it
           Eb                        Ab
Funny my name keeps comin' out your mouth
                Bbm
'Cause I stay winning, lay 'em up like
N.C.
Swish, swish, bish


[Chorus]

  pm      pm pm    pm      pm  pm      [x4]
e|-------------------------------------------------------------------------|
B|-------------------------------------------------------------------------|
G|----10---------------10--------------------------------------------------|
D|--------10---------------10----------------------------------------------|
A|-8----------8----8-8---------8-------------------------------------------|
E|-------------------------------------------------------------------------|

Another one in the basket
Can't touch this
Another one in the casket


[Chorus]

  pm      pm pm    pm      pm  pm      [x4]
e|-------------------------------------------------------------------------|
B|-------------------------------------------------------------------------|
G|----10---------------10--------------------------------------------------|
D|--------10---------------10----------------------------------------------|
A|-8----------8----8-8---------8-------------------------------------------|
E|-------------------------------------------------------------------------|

Another one in the basket
Can't touch this
Another one in the casket


[Bridge]

N.C.
They know what is what
But they don't know what is what 

Nicki Minaj:"Katy Perry."
Katy Perry:"What?"

They just know what is what

Nicki Minaj:"Young Money."
Katy Perry:"What?"

But they don't know what is what
They just know what is what
But they don't know what is what
They just strut (Haha, yo)
What the fuck?

[Verse]

  pm      pm pm    pm      pm  pm      [x4]
e|-------------------------------------------------------------------------|
B|-------------------------------------------------------------------------|
G|----10---------------10--------------------------------------------------|
D|--------10---------------10----------------------------------------------|
A|-8----------8----8-8---------8-------------------------------------------|
E|-------------------------------------------------------------------------|

Fm               Eb
Don't you double back
            Ab        Bbm 
I already despise you
Fm                      Eb
All that fake love you showin'
                 Ab       Bbm
Couldn't even disguise you


[Verse]

N.C.
Ran? When? Nicki gettin' tan
N.C.
Mirror mirror who's the fairest bitch in all the land?

  pm      pm pm    pm      pm  pm      [x4]
e|-------------------------------------------------------------------------|
B|-------------------------------------------------------------------------|
G|----10---------------10--------------------------------------------------|
D|--------10---------------10----------------------------------------------|
A|-8----------8----8-8---------8-------------------------------------------|
E|-------------------------------------------------------------------------|


Damn, man, this bitch is a Stan
Muah, muah, the generous queen will kiss a fan
Ass goodbye, I'm-a be riding by 
I'm-a tell my nigga, Biggz
"Yeah, that's the guy."
A star's a star, a heart's a heart 
They never ought the swish god 
Would take it this far
Get my pimp cup, this is pimp shit, baby
N.C.
I only rock with Queens, so I'm makin' hits with Katy

N.C.
Swish swish bish


[Chorus]

  pm      pm pm    pm      pm  pm      [x4]
e|-------------------------------------------------------------------------|
B|-------------------------------------------------------------------------|
G|----10---------------10--------------------------------------------------|
D|--------10---------------10----------------------------------------------|
A|-8----------8----8-8---------8-------------------------------------------|
E|-------------------------------------------------------------------------|

Another one in the basket
Can't touch this
Another one in the casket

[Outro]

  pm      pm pm    pm      pm  pm      [x4]
e|-------------------------------------------------------------------------|
B|-------------------------------------------------------------------------|
G|----10---------------10--------------------------------------------------|
D|--------10---------------10----------------------------------------------|
A|-8----------8----8-8---------8-------------------------------------------|
E|-------------------------------------------------------------------------|

They know what is what
They don't know what is what
They just strut
What the?





            
            
Suggest correction
Creating personal tab
Creating personal tab
You can edit any tab online and save it as your Personal.

You can edit, replace or remove any tab part or add personal notes – all changes will be seen only by you.

Personal tabs can be accessed anytime from any device, even offline.
Learn more »
Give kudos to tab author, rate the tab!
1 2 3 4 5
comments
print report bad tab
guest
You may want to rate the tab now too:
select rating
Wanna post a correction for this tab? Suggest correction