Oops, an error
Loading. Please wait.

Teenage Dream Tab

version 1
version 1

Whole song

Interactive

131,740 views 18 this week
1 commentread comment
1 2 3 4 5
accurate
x 6
add to favorites
launch autoscroll
font size
0
reset
how to read this tab
guitar tuner
Autoscroll
slow
fast
+/-
esc
set tempo
stop
Help us to improve Ultimate-Guitar.com Take our survey!
×
Contributor
x-tasha-x 1,722
-- Katy Perry – Teenage Dream --

Drop D tuning DADGBE

tabbed by x-tasha-x


INTRO:
guitar 1:
E||-------------------|
B||-------------------|
G||-77777777775555555-|
D||-------------------|
A||-------------------|
D||-------------------|

guitar 2: (palm mute)
E||-------------------|
B||-------------------|
G||-8888888888--------|
D||-88888888883333333-|
A||-66666666663333333-|
D||-----------3333333-|


VERSE:
You think I'm pretty without any makeup on... 
guitar 1:
E||-------------------|
B||-------------------|
G||-77777777775555555-|x8
D||-------------------|
A||-------------------|
D||-------------------|

guitar 2: (palm mute)
E||-------------------|  |----------------|
B||-------------------|  |----------------|
G||-8888888888--------|x4|-8888888--------|x4
D||-88888888883333333-|  |-8888888-5-33---|
A||-66666666663333333-|  |-6666666-5-33---|
D||-----------3333333-|  |---------5-33---|


PRE CHORUS:
Lets go all the way tonight...
guitar 1:
E||-------------------|
B||-------------------|
G||-77777777775555555-|x4
D||-------------------|
A||-------------------|
D||-------------------|

guitar 2: (palm mute)
E||----------------|
B||----------------|
G||-8888888--------|x4
D||-8888888-5-33---|
A||-6666666-5-33---|
D||---------5-33---|


CHORUS:
You make me feel like I'm living a...
guitar 1:
E||-------------------|
B||-------------------|
G||-77777777775555555-|x8
D||-------------------|
A||-------------------|
D||-------------------|

guitar 2:
E||-------------|
B||-------------|
G||-------------|x8
D||-1----5-33---|
A||-1----5-33---|
D||-1----5-33---|

guitar 3:
[starts at] My heart stops...
E||-666666666-5555-3333-1111111111111111-|x2
B||--------------------------------------|
G||--------------------------------------|
D||--------------------------------------|
A||--------------------------------------|
D||--------------------------------------|


VERSE 2:
We drove to cali... 
guitar 1:
E||-------------------|
B||-------------------|
G||-77777777775555555-|x4
D||-------------------|
A||-------------------|
D||-------------------|

guitar 2: (palm mute)
E||----------------|
B||----------------|
G||-8888888--------|x4
D||-8888888-5-33---|
A||-6666666-5-33---|
D||---------5-33---|


PRE CHORUS:
Lets go all the way tonight...
guitar 1:
E||-------------------|
B||-------------------|
G||-77777777775555555-|x4
D||-------------------|
A||-------------------|
D||-------------------|

guitar 2: (palm mute)
E||----------------|
B||----------------|
G||-8888888--------|x4
D||-8888888-5-33---|
A||-6666666-5-33---|
D||---------5-33---|

guitar 3:
E||3-3-3-3-1-1-1-1-|
B||3-3-3-3-1-1-1-1-|x4
G||----------------|
D||----------------|
A||----------------|
D||----------------|


CHORUS(same as before)

BRIDGE:
I'mma get your heart racing in my skin tight jeans...
guitar 1:
E||-------------------|
B||-------------------|
G||-77777777775555555-|x6
D||-------------------|
A||-------------------|
D||-------------------|

guitar 2:
E||-------------|
B||-------------|
G||-------------|x6
D||-1----5-33---|
A||-1----5-33---|
D||-1----5-33---|

guitar 3:
E||-666666666-5555-3333-1111111111111111-|x3
B||--------------------------------------|
G||--------------------------------------|
D||--------------------------------------|
A||--------------------------------------|
D||--------------------------------------|


LAST CHORUS:
You make me feel like I'm living a...
guitar 1:
E||-------------------|
B||-------------------|
G||-77777777775555555-|x8
D||-------------------|
A||-------------------|
D||-------------------|

guitar 2:
E||-------------|
B||-------------|
G||-------------|x8
D||-1----5-33---|
A||-1----5-33---|
D||-1----5-33---|

guitar 3:
E||-666666666-5555-3333-1111111111111111-|x4
B||--------------------------------------|
G||--------------------------------------|
D||--------------------------------------|
A||--------------------------------------|
D||--------------------------------------|


END WITH BRIDGE:
I'mma get your heart racing in my skin tight jeans...
guitar 1:
E||-------------------|
B||-------------------|
G||-77777777775555555-|x6
D||-------------------|
A||-------------------|
D||-------------------|

guitar 2:
E||-------------|
B||-------------|
G||-------------|x6
D||-1----5-33---|
A||-1----5-33---|
D||-1----5-33---|

guitar 3:
E||-666666666-5555-3333-1111111111111111-|x3
B||--------------------------------------|
G||--------------------------------------|
D||--------------------------------------|
A||--------------------------------------|
D||--------------------------------------|
comments
print report bad tab
1 comment total.
0 reply
rikenisr 12 wrote on June 3 2011, 01:40 pm

i think intro should be like this....n pick upward
E------------------------------------------
A-----------------------------------------
D=------------------------------------------
G-------------------------------------------
B-11-11-11-11-11-11-11-11-11-11-11-11-11-11-11-11
e-11-11-11-11-11-11-11-11-9--9--9--9--9--9--9--9

even thou it's played in only one string...this sounds nice...

I want to post or [tab]
guest
You may want to rate the tab now too:
select rating
Please do not post tabs as comments. Select "correction" instead!