Oops, an error
Loading. Please wait.

Teenage Dream Bass Tab

version 2
version 2

Whole song

Interactive

7,357 views 6 this week
no commentswrite comment
1 2 3 4 5
please rate
add to favorites
launch autoscroll
font size
0
reset
guitar tuner
Autoscroll
slow
fast
+/-
esc
set tempo
stop
Help us to improve Ultimate-Guitar.com Take our survey!
×
Teenage Dream (by Katy Perry)
Verse(end on D5),After ‘down’, begin at 00:21-‘Before you met me…’:
G|-------------5-----3---3---------------------------------------|
D|--------6------------------------------------------------------|
A|---------------------------------------------------------------|
E|---------------------------------------------------------------| x8
	
Chrous
G|---------------------------------------------------------------|
D|---------------------------------------------------------------|
A|---------------------------------------------------------------|
E|---1-----5----3--3---------------------------------------------| x8

Verse(end on D5)
G|-------------5-----3---3---------------------------------------|
D|--------6------------------------------------------------------|
A|---------------------------------------------------------------|
E|---------------------------------------------------------------| x8

Chrous
G|---------------------------------------------------------------|
D|---------------------------------------------------------------|
A|---------------------------------------------------------------|
E|---1-----5----3--3---------------------------------------------|x12

Bridge
G|---------------------------------------------------------------|
D|----------------5----3--3~-------------------------------------|
A|--------6~-----------------------------------------------------|
E|---------------------------------------------------------------| x2

Outro
G|---------------------------------------------------------------|
D|---------------------------------------------------------------|
A|---------------------------------------------------------------|
E|---1-----5----3--3---------------------------------------------|x14

Suggest correction
Give kudos to tab author, rate the tab!
1 2 3 4 5
comments
print report bad tab
guest
You may want to rate the tab now too:
select rating
Please do not post tabs as comments. Select "correction" instead!