Oops, an error
Loading. Please wait.

Teenage Dream tab

version 2
version 2

Whole song

Interactive

122,452 views 54 this week
4 commentsread comments
1 2 3 4 5
x 27
add to favorites
×
Save as Personal and add changes to this tab that will be seen only by you. Learn more ›
×
You can save this tab as Personal to edit and correct it or add notes. All changes will be seen only by you. Learn more »
launch autoscroll
font size
0
reset
how to read this tab
guitar tuner
edit
Autoscroll
slow
fast
+/-
esc
set tempo
stop
Author
Difficulty
Hey here is a tab for Teenage Dream by Katy Perry. Pretty easy song to play. And a 
great song. Well, enjoy!!

[Intro]
E||------------------------------------|
B||------------------------------------|
G||-7-7-7-7-7-7-7-7-7-7-5-5-5-5-5-5-5-5|
D||-8-8-8-8-8-8-8-8-8-8-8-8-8-8-8-8-8-8|
A||------------------------------------|
D||------------------------------------|

[Verse]
E||------------------------------------|
B||------------------------------------|
G||-7-7-7-7-7-7-7-7-7-7-5-5-5-5-5-5-5-5|
D||-8-8-8-8-8-8-8-8-8-8-8-8-8-8-8-8-8-8|
A||------------------------------------| Do this until the Chorus (12x I believe..)
D||------------------------------------|

[Chorus]
E||-------------------|
B||-------------------|
G||-------------------|
D||-1----5--33--------|
A||-1----5--33--------|
D||-1----5--33--------|

[Verse]
E||------------------------------------|
B||------------------------------------|
G||-7-7-7-7-7-7-7-7-7-7-5-5-5-5-5-5-5-5|
D||-8-8-8-8-8-8-8-8-8-8-8-8-8-8-8-8-8-8|
A||------------------------------------| This time 8x I believe..
D||------------------------------------|

[Chorus]
E||-------------------|
B||-------------------|
G||-------------------|
D||-1----5--33--------|
A||-1----5--33--------|
D||-1----5--33--------|

This is pretty much it for the whole song. It just repeats. 

            
            
Suggest correction
Creating personal tab
Creating personal tab
You can edit any tab online and save it as your Personal.

You can edit, replace or remove any tab part or add personal notes – all changes will be seen only by you.

Personal tabs can be accessed anytime from any device, even offline.
Learn more »
comments
print report bad tab
4 comments total. Showing first comments.
+4 reply
grimm26 10 Aug 13, 2011 07:52 PM

might wanna mention that you are playing in drop D

0 reply
CaliforniaBP 229 Feb 15, 2014 02:56 AM

how do I play this 1 - 5 - 3 bares it sounds off , do I play it like a bare or ??

0 reply
Gontier_Fanboy1 10 Jun 02, 2016 09:00 AM

what in the hell is katy perry using a "heavy metal tuning"?

guest
You may want to rate the tab now too:
select rating
Wanna post a correction for this tab? Suggest correction