Oops, an error
Loading. Please wait.

Teenage Dream chords

version 9
version 9

Whole song

Interactive

6,262 views 78 this week
no commentswrite comment
1 2 3 4 5
x 9
add to favorites
×
Save as Personal and add changes to this tab that will be seen only by you. Learn more ›
×
You can save this tab as Personal to edit and correct it or add notes. All changes will be seen only by you. Learn more »
launch autoscroll
font size
0
reset
transpose
0
reset
simplify chords
display chords
guitar tuner
edit
Autoscroll
slow
fast
+/-
esc
set tempo
stop
Strumming
There is no strumming pattern for this song yet. and get +5 IQ
[Intro]

    Dmaj               E
e|--------------------------------------|
B|--2-2-2-2-2-2-2-2-2--2-0-0-0-0-0-0-0--|
G|--2-2-2-2-2-2-2-2-2--2-2-2-2-2-2-2-2--|
D|--------------------------------------|
A|--------------------------------------|
E|--------------------------------------|


[Verse 1]
 
    Dmaj               E
e|--------------------------------------|
B|--2-2-2-2-2-2-2-2-2--2-0-0-0-0-0-0-0--|
G|--2-2-2-2-2-2-2-2-2--2-2-2-2-2-2-2-2--|
D|--------------------------------------|
A|--------------------------------------|
E|--------------------------------------|
You think I'm pretty, without any make-up on 

    Dmaj               E
e|--------------------------------------|
B|--2-2-2-2-2-2-2-2-2--2-0-0-0-0-0-0-0--|
G|--2-2-2-2-2-2-2-2-2--2-2-2-2-2-2-2-2--|
D|--------------------------------------|
A|--------------------------------------|
E|--------------------------------------| 
You think I'm funny, when I tell the punch line wrong
 
    Dmaj               E
e|--------------------------------------|
B|--2-2-2-2-2-2-2-2-2--2-0-0-0-0-0-0-0--|
G|--2-2-2-2-2-2-2-2-2--2-2-2-2-2-2-2-2--|
D|--------------------------------------|
A|--------------------------------------|
E|--------------------------------------|
I know you get me, so I'll let my walls come 
 
    Dmaj               E
e|--------------------------------------|
B|--2-2-2-2-2-2-2-2-2--2-0-0-0-0-0-0-0--|
G|--2-2-2-2-2-2-2-2-2--2-2-2-2-2-2-2-2--|
D|--------------------------------------|
A|--------------------------------------|
E|--------------------------------------| 
    Down,           down
 

Dmaj          F#m  E
Before you met I  was a wreck, but
Dmaj                     F#m  E
Things were kinda heavy, you  brought me to life, now
 Dmaj           F#m    E
Every February, you'll be my 
    Dmaj       F#m   E
Valentine, valentine


[Pre-Chorus]

          Dmaj    F#m  E
Let's go all, the way tonight
      Dmaj       F#m   E
No regrets, just love
        Dmaj    F#m    E
We can dance, until we die
        Dmaj        F#m   E
You and I, we'll be young forever


[Chorus]

Dmaj      F#m E
You make me    feel like I'm living a 
Dmaj      F#m  E
Teenage Dream,  the way you turn me on
Dmaj       F#m E
I can't sleep     Let's runaway
Dmaj          F#m      E
And don't ever look back, don't ever look back

Dmaj       F#m  E
My heart stops,    when you look at me
Dmaj       F#m  E
Just one touch,    now baby I believe
Dmaj       F#m  E
This is real,      so take a chance
          Dmaj                 F#m  E
And don't ever look back, don't ever look back


[Verse 2]

Dmaj              F#m     E
We drove to Cali, and got drunk on the beach
Dmaj             F#m     E
Got a motel and, built a floor out of sheets
Dmaj                F#m         E
I finally found you, my missing puzzle
Dmaj      F#m      E
Piece, I'm complete


[Pre-Chorus]

         Dmaj    F#m  E
Let's go all, the way tonight
     Dmaj       F#m   E
No regrets, just love
       Dmaj    F#m    E
We can dance, until we die
       Dmaj        F#m   E
You and I, we'll be young forever


[Chorus]

Dmaj      F#m E
You make me    feel like I'm living a 
Dmaj      F#m  E
Teenage Dream,  the way you turn me on
Dmaj       F#m E
I can't sleep     Let's runaway
Dmaj          F#m      E
And don't ever look back, don't ever look back

Dmaj       F#m  E
My heart stops,    when you look at me
Dmaj       F#m  E
Just one touch,    now baby I believe
Dmaj       F#m  E
This is real,      so take a chance
          Dmaj                 F#m  E
And don't ever look back, don't ever look back


[Pre-Chorus]

                 Dmaj            F#m     E
I might get your heart racing, in my skin-tight jeans
        Dmaj           F#m  E
Be your teenage dream tonight
                 Dmaj           F#m     E
Let you put your hands on me, in my skin-tight jeans
        Dmaj           F#m  E
Be your teenage dream tonight


[Interlude]

Dmaj F#m E 

Dmaj F#m E 


[Chorus]

Dmaj      F#m E
You make me    feel like I'm living a 
Dmaj      F#m  E
Teenage Dream,  the way you turn me on
Dmaj       F#m E
I can't sleep     Let's runaway
Dmaj          F#m      E
And don't ever look back, don't ever look back

Dmaj       F#m  E
My heart stops,    when you look at me
Dmaj       F#m  E
Just one touch,    now baby I believe
Dmaj       F#m  E
This is real,      so take a chance
          Dmaj                 F#m  E
And don't ever look back, don't ever look back


[Outro]

                 Dmaj            F#m     E
I might get your heart racing, in my skin-tight jeans
        Dmaj           F#m  E
Be your teenage dream tonight
                 Dmaj           F#m     E
Let you put your hands on me, in my skin-tight jeans
        Dmaj           F#m  E
Be your teenage dream tonight
Suggest correction
Creating personal tab
Creating personal tab
You can edit any tab online and save it as your Personal.

You can edit, replace or remove any tab part or add personal notes – all changes will be seen only by you.

Personal tabs can be accessed anytime from any device, even offline.
Learn more »
comments
print report bad tab
guest
You may want to rate the tab now too:
select rating
Wanna post a correction for this tab? Suggest correction