Oops, an error
Loading. Please wait.
We have Chord Pro version of The One That Got Away.
It's the closest thing you can get to the original song and it has interactive parts. Check out the tab »
×
13,695 views 9 this week
1 commentread comment
1 2 3 4 5
x 4
add to favorites
×
Save as Personal and add changes to this tab that will be seen only by you. Learn more ›
×
You can save this tab as Personal to edit and correct it or add notes. All changes will be seen only by you. Learn more »
launch autoscroll
font size
0
reset
guitar tuner
edit
Autoscroll
slow
fast
+/-
esc
set tempo
stop
Author
Difficulty
So about 5 people requested tabs for this song so I decided to post them up here. 
Just to let you know in the recording the only parts that have bass are Verse 2, 
Chorus 2, and Chorus 3.
However, I tabbed the piano part for bass in Verse 1 and the root notes for Chorus 
1 and the Bridge.


Check out my cover of this song!

http://www.youtube.com/watch?v=UZC4QWfA0fs 

Check out my channel for more bass covers! 

http://www.youtube.com/user/chrisistheazn 



Verse 1 

G|-4-------4-------4-------4-------------------| 
D|---6---6---6---6---6---6---6---6-------------| 
A|-----7-------7-------6-------6---------------| 
E|---------------------------------------------| 

G|-6-------6-------6-------6-------------------| 
D|---6---6---6---6---7---7---7---7-------------| 
A|-----7-------7-------7-------7---------------| 
E|---------------------------------------------| 

Repeat this figure twice

Chorus 1 

G|-----------------------------------------------------| 
D|-----------------------------------------------------| 
A|-7-7-7-7-7-7-7-7-7-7-7-7-7-7-7-7---------------------| 
E|-----------------------------------------------------| 

G|-----------------------------------------------------| 
D|-----------------------------------------------------| 
A|-11-11-11-11-11-11-11-11-11-11-11-11-11-11-11-11-----| 
E|-----------------------------------------------------| 

G|-----------------------------------------------------| 
D|-----------------------------------------------------| 
A|-16-16-16-16-16-16-16-16-16-16-16-16-16-16-16-16-----| 
E|-----------------------------------------------------| 

G|-----------------------------------------------------| 
D|-----------------------------------------------------|
A|-12-12-12-12-12-12-12-12-12-12-12-12-12-12-12-12-----| 
E|-----------------------------------------------------| 

Repeat this figure twice


Verse 2 

G|---------------------------------------------| 
D|---------------------------------------------| 
A|-7-7-7-7-7-7-7-7-11-11-11-11--11-11-11-11----| 
E|--------7-------7-----------11-----------11--| 

G|---------------------------------------------| 
D|---------------------------------------------| 
A|---------------------------------------------| 
E|-9-9-9-9X9-9-9-9X5-5-5-505-5-5-57------------| 

G|---------------------------------------------| 
D|---------------------------------------------| 
A|-7-7-7-7-7-7-7-7-11-11-11-11--11-11-11-11----| 
E|--------7-------7-----------11-----------11--| 

G|---------------------------------------------| 
D|---------------------------------------------| 
A|---------------------------------------------| 
E|-9-9-9-9X9-9-9-9X5-5-5-5---------------------| 

Chorus 2 

G|---------------------------------------------| 
D|---------------------------------------------| 
A|-7-7-7-7-7-7-7-7-11-11-11-11--11-11-11-11----| 
E|--------7-------7-----------11-----------11--|

 G|---------------------------------------------| 
D|---------------------------------------------| 
A|---------------------------------------------| 
E|-9-9-9-9X9-9-9-9X5-5-5-505-5-5-57------------| 

G|---------------------------------------------| 
D|---------------------------------------------| 
A|-7-7-7-7-7-7-7-7-11-11-11-11--11-11-11-11----| 
E|--------7-------7-----------11-----------11--| 

G|---------------------------------------------| 
D|---------------------------------------------| 
A|---------------------------46797-------------| 
E|-9-9-9-9X9-9-9-9X5-5-5-5057-----7------------| 

G|---------------------------------------------| 
D|------------------------1---121--------------| 
A|--------2-------2--------------42------------| 
E|-0-0-0-0-0-0-0-0-4-4-4-4-4-4-----------------| 

G|--------4-------4----------------------------| 
D|---------------------------------------------| 
A|-4-4-4-4-4-4-4-4---------------24------------| 
E|-----------------5-5-5-505-5-50--------------| 

Bridge 
G|--------------------------------------------------| 
D|--------------------------------------------------| 
A|-2-2-2-2-2-2-2-2-4-4-4-4--------------------------| 
E|-------------------------2-2-2-2------------------| 

G|--------------------------------------------------| 
D|--------------------------------------------------| 
A|-2-2-2-2-2-2-2-2-4-4-4-4-9-9-9-9------------------| 
E|--------------------------------------------------| 

G|--------------------------------------------------| 
D|--------------------------------------------------| 
A|-12-12-12-12-12-12-12-12-14-14-14-14-9-9-9-9------| 
E|--------------------------------------------------| 

G|-------------------------14-14-14-14--------------| 
D|-13-13-13-13-13-13-13-13-13-13-13-13--------------| 
A|-14-14-14-14-14-14-14-14-14-14-14-14--------------| 
E|--------------------------------------------------| 

Chorus 3 
G|--------------------------------------------------| 
D|--------------------------------------------------| 
A|-7-7-7-7-7-7-7-7-11-11-11-11--11-11-11-11---------| 
E|--------7-------7-----------11-----------11-------| 

G|--------------------------------------------------| 
D|--------------------------------------------------| 
A|--------------------------------------------------| 
E|-9-9-9-9X9-9-9-9X5-5-5-505-5-5-57-----------------| 

G|--------------------------------------------------| 
D|--------------------------------------------------| 
A|-7-7-7-7-7-7-7-7-11-11-11-11--11-11-11-11---------| 
E|--------7-------7-----------11-----------11-------| 

G|--------------------------------------------------| 
D|--------------------------------------------------| 
A|---------------------------4-4679-----------------| 
E|-9-9-9-9X9-9-9-9X5-5-5-5057-7---------------------| 

G|-------------------------9-8-6--------------------| 
D|-----------------------9-------9------------------| 
A|-7---7---7---7---7---7----------------------------| 
E|---------------7----------------------------------| 

G|---------------------------------13-11------------| 
D|------------------------------13-------14-13------| 
A|-11---11---11---11----11---11---------------------| 
E|-------------------11-----------------------------| 

G|--------------------------------------------------| 
D|--------------------------11-9--------------------| 
A|-----------------------11------12-11--------------| 
E|-9---9---9---9-X-9---9----------------------------| 

G|-------------------------------9------------------| 
D|-------------------------4-6-9--------------------| 
A|---------------------6-7--------------------------| 
E|-5---5---5---5-0-5-7------------------------------| 

G|-----------------9-8-6----------------------------| 
D|---------------9-------9-7-6----------------------| 
A|-7---7---7---7---------------9-7------------------| 
E|--------------------------------------------------| 

G|----------------------13-11-----------------------| 
D|-------------------13-------14-13-11---11-13------| 
A|-11---11---11---11-------------------14-----------| 
E|--------------------------------------------------| 
G|--------------------------------------------------| 
D|------------------11-9----------------------------| 
A|---------------11------12-11-9----9-11------------| 
E|-9---9---9---9-----------------12-----------------| 

G|--------------------------------------------------| 
D|----------------------------11----11-13-14-16-14--| 
A|-12---12---12---12----12-14----14-----------------| 
E|-------------------12-----------------------------| 

| /  slide up
| \  slide down
| h  hammer-on
| p  pull-off
| ~  vibrato
| +  harmonic
| x  Mute note

            
            
Suggest correction
Creating personal tab
Creating personal tab
You can edit any tab online and save it as your Personal.

You can edit, replace or remove any tab part or add personal notes – all changes will be seen only by you.

Personal tabs can be accessed anytime from any device, even offline.
Learn more »
comments
print report bad tab
1 comment total.
0 reply
RickyRubio 515 Nov 15, 2014 07:23 AM

There are a few mistakes and this is not so useful for Bass, but okay ... thaks, it helped me!

guest
You may want to rate the tab now too:
select rating
Wanna post a correction for this tab? Suggest correction