Oops, an error
Loading. Please wait.

Thinking Of You Tab

version 1
version 1

Whole song

Video

154,075 views 36 this week
4 commentsread comments
1 2 3 4 5
x 14
add to favorites
launch autoscroll
font size
0
reset
how to read this tab
guitar tuner
×
Best way to learn
"Thinking Of You"
Autoscroll
slow
fast
+/-
esc
set tempo
stop
Song: Thinking Of You
Artist: Katy Perry
Tuning: Standard

(Changed the C#m and F#m chord for more open sound
the bridge a little)

[Chords used]
e|----------------------|
B|----------------------|
G|--9---6---6----8---2--|
D|--9---7---6----9---4--|
A|--7---7---4----9---4--|
E|------5--------7------|
    E   A  C#m   B  F#m

Note: There is another guitar in the song that I haven't figured out yet.
And figure out the strumming pattern for yourselves.

[Verse 1]
(Chord Progression - E, B, C#m, A)
e|---------------------------------------------------------------|
B|---------------------------------------------------------------|
G|--9-------------8------------------------6---------------6-----|
D|--9-------------9------------------------6---------------7-----|
A|--7-------------9------------------------4---------------7-----|
E|----------------7----------------------------------------5-----|
Comparasions are easily done, one you've had a taste of perfection. Like an

e|------------------------------------------------------------------|
B|------------------------------------------------------------------|
G|----9-------------8------------------------6----------------6-----|
D|----9-------------9------------------------6----------------7-----|
A|----7-------------9------------------------4----------------7-----|
E|------------------7-----------------------------------------5-----|
  apple hanging from a tree, i pick the ripest one & still got the seed

[Pre Chorus]
(Chord Progression - B, C#m, A, B, C#m, A, F#)
e|---------------------------------------------------------------------|
B|---------------------------------------------------------------------|
G|-8------------6--------------6----8--------6--------------6-----2----|
D|-9------------6--------------7----9--------6--------------7-----4----|
A|-9------------4--------------7----9--------4--------------7-----4----|
E|-7---------------------------5----7-----------------------5----------|

You said move on, where do I go?  I guess second best is all I will know

[Chorus]
(Chord Progression  - E, B, C#m, A, B, E, B, C#m, A, F#m)
e|---------------------------------------------------------------------------|
B|---------------------------------------------------------------------------|
G|------------9------8----------------6---------------6-------------8------9-|
D|------------9------9----------------6---------------7-------------9------9-|
A|------------7------9----------------4---------------7-------------9------7-|
E|-------------------7--------------------------------5-------------7--------|
Cause when I'm with him, I am thinking of you, thinking of you. What would you do if you
the one

e|----------------------------------------------------------------------|
B|----------------------------------------------------------------------|
G|---------8------------------6------------------------6-------------2--|
D|---------9------------------6------------------------7-------------4--|
A|---------9------------------4------------------------7-------------4--|
E|---------7-------------------------------------------5----------------|
who was spending the night. oh how I wish that I was looking into your eye

[Bridge]
(Chord Progression - C#m, B, A, B, C#m, B, A, B, C#m, B, A, B, A, B, A, B)
e|-----------------------------------------------------------|
B|-----------------------------------------------------------|
G|---6---------8---------6------8----------6---8------6----8-|
D|---6---------9---------7------9----------6---9------7----9-|
A|---4---------9---------7------9----------4---9------7----9-|
E|-------------7---------5------7--------------7------5----7-|
  The best and oh I do regret  How could I let myself let you go

e|----------------------------------------------------------|
B|----------------------------------------------------------|
G|---6---8-------------------6--------8-------------------6-|
D|---6---9-------------------7--------9-------------------7-|
A|---4---9-------------------7--------9-------------------7-|
E|-------7-------------------5--------7-------------------5-|
    and now, now the lessons learned. I touched and I was burned

e|-----------------------------|
B|-----------------------------|
G|---8----------6----------8---|
D|---9----------7----------9---|
A|---9----------7----------9---|
E|---7----------5----------7---|
     Oh I think you should know

Song Order:
Verse 1
Pre-Chorus
Chorus
Verse 2
Bridge
Chorus x2
It wouldn't suprise me if there are any mistakes, seeing as it's my first tab.
But I think it sounds right.
Enjoy.
Suggest correction
comments
print report bad tab
4 comments total. Showing first comments.
+1 reply
joeschmo88 10 Dec 15, 2008 01:47 PM

very good tab. i would just change two things; C#m and F#m. for a more "open" sound i use:

e|------------|
B|------------|
G|--6----2----|
D|--6----4----|
A|--4----4----|
E|------------|
C#m F#m

0 reply
calliesktkate 20 Jan 04, 2009 11:39 AM

i agree with changing to easier power chords, but for everything else this is a really awesome tab!

0 reply
namesalexx 41 Feb 03, 2009 05:12 PM

for the

for the F#m on everything i think it should be an Am

e|---0--------5---|
B|---1--------5---|
G|---2---or---5---|
D|---2--------7---|
A|---0--------7---|
E|------------5---|

guest
You may want to rate the tab now too:
select rating
Wanna post a correction for this tab? Suggest correction