Oops, an error
Loading. Please wait.

Down The Stairs Bass Tab

320 views 1 this week
no commentswrite comment
1 2 3 4 5
3 more votes to show rating
add to favorites
launch autoscroll
font size
0
reset
guitar tuner
Autoscroll
slow
fast
+/-
esc
set tempo
stop
Help us to improve Ultimate-Guitar.com Take our survey!
×
Author
Difficulty
novice
Artist : Katzenjammer Kabarett (http://www.katzenjammer-kabarett.com/)
Song   : Down the Stairs
Album  : Katzenjammer Kabarett (2006)


       			************************
       			*                      *
       			* Tabbed By Bassman366 *
       			*                      *
		         ************************



Riff 1

G|----------------|---------------|
D|----------------|---------------|
A|2-2-----2-2-----|---------------|
E|----------------|3-3----0-0-3-3-|



Riff 2


G|----------------|----------------|
D|----------------|----------------|
A|2-2-2-2---------|--------0-0-0-0-|
E|--------3-3-3-3-|0-0-0-0---------|



These two riffs are use at different time in the song. Reach them.
Suggest correction
Give kudos to tab author, rate the tab!
1 2 3 4 5
comments
print report bad tab
guest
You may want to rate the tab now too:
select rating
Wanna post a correction for this tab? Suggest correction