Oops, an error
Loading. Please wait.
3,286 views 6 this week
3 commentsread comments
1 2 3 4 5
x 4
add to favorites
×
Save as Personal and add changes to this tab that will be seen only by you. Learn more ›
×
You can save this tab as Personal to edit and correct it or add notes. All changes will be seen only by you. Learn more »
launch autoscroll
font size
0
reset
how to read this tab
guitar tuner
edit
Autoscroll
slow
fast
+/-
esc
set tempo
stop
Author
Difficulty
HEY MOMMA - Kay Kay and His Weathered Underground

Tabbed by: Jake D.
Email: dukeofwasabi@aol.com


I'm not sure how accurate the tab of this song is, but here's my shot at it. Standard 
capo at second fret. For the intro he plays the chords with a sort of jazzy rhythm. I 
to tab the rhythm but I suggest you listen to the song as well.

 E      E             G#              C#m      F#           B
|----2-|-2---2-2--2-|------------|-2---2-2--0-|------------|------------|
|---3--|-3---3-3--3-|------------|-3---3-3--0-|-0---0-0--0-|-2---2-2--2-|
|--2---|------------|-3---3-3--3-|------------|-1---1-1--1-|-2---2-2--2-|
|-0----|-0-0---0-0--|-4---4-4--4-|------------|------------|------------|
|------|------------|------------|-2-2---2--0-|-2-2---2-2--|-0-0---0-0--|
|------|------------|-2-2---2-2--|------------|------------|------------|

(you could also play E) G#
     |-----------------|---------------|
     |-7-7-5-5-3-3-2-2-|---------------|
     |-7-7-6-6-4-4-2-2-|---3---3-3---3-|
     |-----------------|---4---4-4---4-|
     |-5-5-4-4-2-2-0-0-|---------------|
     |-----------------|-2---2-----2---|

 C#m               F#            B             C#m
|---2---2---2---0-|-------------|-------------|---2---2---2---2-|
|---3---3---3---0-|-0---0-0---0-|-2---2---2---|---3---3---3---3-|
|-----------------|-1---1-1---1-|-2---2---2---|-----------------|
|-----------------|-------------|-------------|-----------------|
|-2---2---2---2-0-|-2-2---2-2---|-0-0---0---1-|-2---2---2---2---|
|-----------------|-------------|-------------|-----------------|

 G#                F#                B        Cdim
|-----------------|-----------------|-----------------|
|-----------------|-----------------|---2---2---2---2-|
|---3---3---3---3-|---1---1---1---1-|---2---2---3---3-|
|---4---4---4---4-|---2---2---2---2-|-----------------|
|-----------------|-----------------|-0---0---1---1---|
|-2---2---2---2---|-0---0---0---0---|-----------------|

 C#m               G#                F#                B        Cdim
|---2---2---2---2-|-----------------|-----------------|-----------------|
|---3---3---3---3-|-----------------|-----------------|---2---2---2---2-|
|-----------------|---3---3---3---3-|---1---1---1---1-|---2---2---3---3-|
|-----------------|---4---4---4---4-|---2---2---2---2-|-----------------|
|-2---2---2---2---|-----------------|-----------------|-0---0---1---1---|
|-----------------|-2---2---2---2---|-0---0---0---0---|-----------------|

 E F#m7/B A  E  E F#m7/B A  E
|----0----3--2-|----0----3--2---2---|-2---2---2---2---2-------|
|-3--3----0--3-|-3--3----0--3---3---|-3---3---3---3---3-------|
|-2--0----0--2-|-2--0----0----------|-------------------------|
|-0--2----0--0-|-0--2----0----0---0-|---0---0---0---0---------|
|-0--0----2--0-|-0--0----2----------|-------------------0-2-4-|
|--------------|--------------------|-------------------------|

(piano solo) E G# C#m F# B

E G# C#m F# B x2

 C#m       Caug      E         Eb5
|---------|---------|---------|---------------------|
|---------|---------|---------|---------------------|
|---------|---------|---------|---------------------|
|---0-2-4-|---0-2-4-|---0-2-4-|---0-2-0-2h4p2-0h2p0-|
|-2-------|-1-------|-0-------|---------------------|
|---------|---------|---------|-4-------------------| x2

 A                 G#
|-3-3-3-3-3-3-3-3-|-2-2-2-2-2-2-2-2-|
|-3-3-3-3-3-3-3-3-|-2-2-2-2-2-2-2-2-|
|-4-4-4-4-4-4-4-4-|-3-3-3-3-3-3-3-3-|
|-5-5-5-5-5-5-5-5-|-4-4-4-4-4-4-4-4-|
|-5-5-5-5-5-5-5-5-|-4-4-4-4-4-4-4-4-|
|-3-3-3-3-3-3-3-3-|-2-2-2-2-2-2-2-2-|

bass and guitar solos (absent from the Carson Daly performance)

Here (Get a little jumpy when the phone rings), I have no idea what he plays, but this 
what I do.

|---22-2---22-2---22-2---22-2---22-2---22-2---22-2---22-2-|
|---33-3---33-3---33-3---33-3---33-3---33-3---33-3---33-3-|
|---------------------------------------------------------|
|---------------------------------------------------------|
|-2---2--2---2--1---1--1---1--0---0--0---0----------------|
|-------------------------------------------4---4--4---4--| x2

(Can you blame me...)

 A  B C#m F#      A  G#
|-3--0--2--0-|   |-3--2-|
|-3--2--3--0-|   |-3--2-|
|-0--2--4--1-|   |-4--3-|
|-0--2--4--2-|   |-5--4-|
|-2--0--2--2-|   |-5--4-|
|-3--0--2--0-|x2 |-3--2-|

1, 2, 3, 4...
(trumpet solo)

 C#m               G#                F#                B        Cdim
|---2---2---2---2-|-----------------|-----------------|-----------------|
|---3---3---3---3-|-----------------|-----------------|---2---2---2---2-|
|-----------------|---3---3---3---3-|---1---1---1---1-|---2---2---3---3-|
|-----------------|---4---4---4---4-|---2---2---2---2-|-----------------|
|-2---2---2---2---|-----------------|-----------------|-0---0---1---1---|
|-----------------|-2---2---2---2---|-0---0---0---0---|-----------------| x4

 E F#m7/B A  E  E F#m7/B A  E
|----0----3--2-|----0----3--2-|
|-3--3----0--3-|-3--3----0--3-|
|-2--0----0--2-|-2--0----0--2-|
|-0--2----0--0-|-0--2----0--0-|
|-0--0----2--0-|-0--0----2--0-|
|--------------|--------------|

            
            
Suggest correction
Creating personal tab
Creating personal tab
You can edit any tab online and save it as your Personal.

You can edit, replace or remove any tab part or add personal notes – all changes will be seen only by you.

Personal tabs can be accessed anytime from any device, even offline.
Learn more »
comments
print report bad tab
3 comments total.
0 reply
lilblig7 73 Aug 14, 2007 11:31 AM

Very nice. Thank you

0 reply
kylepianoman 213 Mar 27, 2010 08:43 AM

I play the c#min with a 4 on the g string, and the G# chord with a 2 on the b string... it gives it a less dissonant sound in my opinion

0 reply
kylepianoman 213 Mar 27, 2010 08:43 AM

but great job :D

guest
You may want to rate the tab now too:
select rating
Wanna post a correction for this tab? Suggest correction