Oops, an error
Loading. Please wait.

Breakdance Lesson N1 Bass

145 views 3 this week
no commentswrite comment
1 2 3 4 5
3 more votes to show rating
add to favorites
launch autoscroll
font size
0
reset
guitar tuner
×
Best way to learn
"Breakdance Lesson N1"
Autoscroll
slow
fast
+/-
esc
set tempo
stop
Author
About this tab version
The first edit completed by me. Was this info helpful? Yes No
The bass in this song very quick. Most of the hammers or pull-offs are here to make this tab easier. Every 
note is struck, so if you want to, ignore the p's and the h's to make it more like the song.



[Riff 1]

G|---------------5----------5p3-5p3--------------5---------------------------|
D|---------------------------------1------------------------1----------------|
A|-3----3--3------3----3------------1-3----3--3-------1--3---------3p1-------|
E|------------------------------------------------3-0---2--------------------|


[Riff 2]

G|----------------------------------------------0-1--1-----0-----1--4-5------|
D|----------------------------------------0----------------------------------|
A|-3--3-------0p3--3-------3p0h3--3-----3------------------------------------|
E|---------------------------------------------------------------------------|


[Riff 3]

G|-5----------------1---1-5---5------------5---------------------------------|
D|----------------------------------------------6----6------------7----6-6---|
A|------3---3-3---3------------3---3-3---3-----------------------------------|
E|----------------------------------------------------4---4-4---4------------|

G|--------------------0---0-------------------0---------------0---0-2---2----|
D|-6-6----------------------------------2---2--------------------------------|
A|----------------3-------------------------------------------------------0--|
E|--------4---4-------------3---3-3---3-----------3---3-3---3----------------|

G|---------2---2-1---1-1---1-------------------------------------------------|
D|---------------------------------------------------------------------------|
A|-0-0---0-------------------------------------------------------------------|
E|--------------------------4---0--------------------------------------------|

Order of the riffs throughout the song.

Riff 1 (x5)
Riff 2
Riff 1
Riff 2

Riff 1 (x2)
Riff 3 (x3)

Riff 1 (x2)
Riff 3 (x2)

************************************
| h   Hammer-on
| p   Pull-off
************************************
Suggest correction
Give kudos to tab author, rate the tab!
1 2 3 4 5
comments
print report bad tab
guest
You may want to rate the tab now too:
select rating
Wanna post a correction for this tab? Suggest correction