Oops, an error
Loading. Please wait.

Strange World bass

version 2
version 2

Whole song

  • Five-string bass, corrected notes and articulation... Show more
by Ke
79 views 1 this week
no commentswrite comment
1 2 3 4 5
3 more votes to show rating
add to favorites
×
Save as Personal and add changes to this tab that will be seen only by you. Learn more ›
×
You can save this tab as Personal to edit and correct it or add notes. All changes will be seen only by you. Learn more »
launch autoscroll
font size
0
reset
guitar tuner
edit
Autoscroll
slow
fast
+/-
esc
set tempo
stop
Author
Difficulty
About this tab version
Five-string bass, corrected notes and articulations, tuning note, completely timed. Was this info helpful? Yes No
If you want to play this with a 4-string, you /have/ to use 1/2-step down tuning.


[INTRO]

3 measures tacet

G|-----------------|-----------------|-----------------|-----------------|-----------------|
D|-----------------|-----------------|-----------------|-----------------|-----------------|
A|-----------------|-----------------|-4-6-7---7-------|-----------------|-----------------|
E|-----------------|---4-4---4-----4-|-----------------|-----------------|---4-4---4-4-----|
B|---------------4-|-7---------------|---------------4-|-4-7-7-4-7-----4-|-7-------------4-|
   1 + 2 + 3 + 4 +   1 + 2 + 3 + 4 +   1 + 2 + 3 + 4 +   1 + 2 + 3 + 4 +   1 + 2 + 3 + 4 +


[VERSE 1]

G|-----------------|-----------------|-----------------|-----------------|
D|-----------------|-----------------|-----------------|-----------------|
A|-----------------|-4-6-7---7-------|-----------------|-----------------| x2
E|---4-4---4-----4-|-----------------|-----------------|---4-4---4-4-----|
B|-7---------------|---------------4-|-4-7-7---7-----4-|-7-----7-------4-|
   1 + 2 + 3 + 4 +   1 + 2 + 3 + 4 +   1 + 2 + 3 + 4 +   1 + 2 + 3 + 4 +

G|-----------------|-----------------|-----------------|-----------------|
D|-----------------|-----------------|-----------------|-----------------|
A|-----------------|-4-6-7-x-7-------|-----------------|-----------------| 
E|---4-4---4-----4-|-----------------|-----------------|---4-4---4-------|
B|-7---------------|---------------4-|-4-7-7-4-7-----4-|-7-----7-------4-|
   1 + 2 + 3 + 4 +   1 + 2 + 3 + 4 +   1 + 2 + 3 + 4 +   1 + 2 + 3 + 4 +

G|-----------------|-----------------|-----------------|-----------------|
D|-----------------|-----------------|-----------------|-----------------|
A|-----------------|-4-6-7---7-------|-----------------|-----------------|
E|---4-4---4-----4-|-----------------|-----------------|/7-6-4---4-4-----|
B|-7---------------|---------------4-|-4-7-7---7-----4-|-------7-------4-|
   1 + 2 + 3 + 4 +   1 + 2 + 3 + 4 +   1 + 2 + 3 + 4 +   1 + 2 + 3 + 4 +


[CHORUS 1]

G|-----------------|-----------------|-----------------|-------------------|
D|-----------------|-----------------|-----------------|-------------------|
A|---------7-7-----|-----------------|-6-6---6-6-6---6-|-6/7-7---x-7-6-4---|
E|-----------------|-----------------|-----------------|-----------------7-|
B|-5-5-5---------4-|-7-7-7-4-7-7---7-|-----------------|-------------------|
   1 + 2 + 3 + 4 +   1 + 2 + 3 + 4 +   1 + 2 + 3 + 4 +   1   + 2 + 3 + 4 +

G|-----------------|-----------------|-----------------|---------------------|
D|-----------------|-----------------|-----------------|-----6/8---8/9-8-6---|
A|-----------------|-----------------|-----------------|-------------------6-|
E|-----------------|---------------7-|-4-4-4---4-----4-|---4-----4-----------|
B|-5-5-5---5-5---7-|-7-7-7---7-7-7---|-----------4-----|---------------------|
   1 + 2 + 3 + 4 +   1 + 2 + 3 + 4 +   1 + 2 + 3 + 4 +   1 + 2   + 3   + 4 +

G|-----------------|-------------------|-----------------|-----------------|
D|-----------------|-------------------|-----------------|-----------------|
A|-7-7-7-------7-4-|-4/9-9-9---9-9-9-7-|-6---------------|-----------------|
E|---------4-7-----|-------------------|---------6-------|-----------------|
B|-----------------|-------------------|-----------4-4-4-|-5-5---4-5-4-5-7-|
   1 + 2 + 3 + 4 +   1   + 2 + 3 + 4 +   1 + 2 + 3 + 4 +   1 + 2 + 3 + 4 +

G|-----------------|-----------------|-----------------|-----------------|
D|-----------------|-----------------|-----------------|-----------------|
A|-----------------|-----------------|-4-4-4---4-------|-4---------4-----|
E|-4-4-4---x-----4-|-4-4-4-----4-7-4-|-----------4-7-4-|-------------4---|
B|-----------4-7---|-----------------|-----------------|---------------4-|
   1 + 2 + 3 + 4 +   1 + 2 + 3 + 4 +   1 + 2 + 3 + 4 +   1 + 2 + 3 + 4 +


[VERSE 2]

G|-----------------|-----------------|-----------------|-----------------|
D|-----------------|-----------------|-----------------|-----------------|
A|-----------------|-4-6-7---7-------|-----------------|-----------------|
E|---4-4---4-----4-|-----------------|-----------------|---4-4---4-------|
B|-7---------------|---------------4-|-4-7-7---7-----4-|-7-----7-------4-|
   1 + 2 + 3 + 4 +   1 + 2 + 3 + 4 +   1 + 2 + 3 + 4 +   1 + 2 + 3 + 4 +


G|-----------------|-----------------|-----------------|-----------------|
D|-----------------|-----------------|-----------------|-----------------|
A|-----------------|-4-6-7---7-7-----|-----------------|-----------------|
E|---4-4---4-----4-|-----------------|-----------------|---4-4---4-------|
B|-7---------------|---------------4-|-4-7-7---7-----4-|-7-----7-------4-|
   1 + 2 + 3 + 4 +   1 + 2 + 3 + 4 +   1 + 2 + 3 + 4 +   1 + 2 + 3 + 4 +


G|-----------------|-----------------|-----------------|-----------------|
D|-----------------|-----------------|-----------------|-----------------|
A|-----------------|-4-6-7---7-------|-----------------|-----------------|
E|---4-4---4-----4-|-----------------|-----------------|---4-4---4---4---|
B|-7---------------|---------------4-|-4-7-7---7-----4-|-7-----7---7---4-|
   1 + 2 + 3 + 4 +   1 + 2 + 3 + 4 +   1 + 2 + 3 + 4 +   1 + 2 + 3 + 4 +

G|-----------------|-----------------|-----------------|------------------|
D|-----------------|-----------------|-----------------|------------------|
A|-----------------|-4-6-7---7-------|-----------------|------------------|
E|---4-4---4-----4-|-----------------|-----------------|-/7-6-4---4-------|
B|-7---------------|---------------4-|-4-7-7---7-----4-|--------7---7-4-4-|
   1 + 2 + 3 + 4 +   1 + 2 + 3 + 4 +   1 + 2 + 3 + 4 +    1 + 2 + 3 + 4 +


[CHORUS 2]

G|-----------------|-----------------|-----------------|---------------------|
D|-----------------|-----------------|-----------------|---------------------|
A|-7-7-7---7---7-7/|-9-9-9---9-9-----|---------6-6---6-|-6/7-7---x-4/7-6-4---|
E|-----------7-----|-------------9---|-------6---------|-------------------7-|
B|-----------------|---------------7-|-4-4-------------|---------------------|
   1 + 2 + 3 + 4 +   1 + 2 + 3 + 4 +   1 + 2 + 3 + 4 +   1   + 2 + 3   + 4 +

G|-----------------|-------------------|-----------------|---------------------|
D|-----------------|-------------------|-----------------|-----6/8---8/9-8-6---|
A|-7-7-7---7---7-4-|-4/9-9-9---9-7-6---|-----------------|-------------------9-|
E|-----------7-----|-----------------7-|-4-4-4---4-----4-|-4-4-----4-----------|
B|-----------------|-------------------|-----------4-7---|---------------------|
   1 + 2 + 3 + 4 +   1   + 2 + 3 + 4 +   1 + 2 + 3 + 4 +   1 + 2   + 3   + 4 +

G|-----------------|-----------------|-----------------|-----------------|
D|-----------------|-----------------|-----------------|-----------------|
A|-7-7-7---7---7-9-|---9-9---9---9---|-6-6-----6-------|-----------------|
E|-----------7-----|-----------9---9-|-----------------|-----------------|
B|-----------------|-----------------|-----4-----4-4-4-|-5-5---4-5-4-5-7-|
   1 + 2 + 3 + 4 +   1 + 2 + 3 + 4 +   1 + 2 + 3 + 4 +   1 + 2 + 3 + 4 +

G|-----------------|-----------------|-------------------|-----------------|
D|-----------------|-----------------|-------------------|-----------------|
A|-----------------|-----------------|-------------------|---------6-------|
E|-4-4-4---x-----4-|-4-4-4-----4-7-4-|/9-9-9-------7-7/9-|-----9-----9-7-6-|
B|-----------4-7---|-----------------|-----------9-------|-----------------|
   1 + 2 + 3 + 4 +   1 + 2 + 3 + 4 +   1 + 2 + 3 + 4 +     1 + 2 + 3 + 4 +


[VIOLIN SOLO/INSTRUMENTAL VERSE]

G|-----------------|-----------------|-----------------|-----------------|
D|-----------------|-----------------|-----------------|-----------------|
A|-----------------|-4-6-7---7-------|-----------------|-----------------|
E|-4-4-4---4-----4-|-----------------|-----------------|---4-4---4-------|
B|-----------------|---------------4-|-4-7-7---7-----4-|-7-------------4-|
   1 + 2 + 3 + 4 +   1 + 2 + 3 + 4 +   1 + 2 + 3 + 4 +   1 + 2 + 3 + 4 +

G|-----------------|-----------------|-----------------|-----------------|
D|-----------------|-----------------|-----------------|-----------------|
A|-----------------|-4-6-7---7-------|-----------------|-----------------|
E|-4-4-4---4-----4-|-----------------|-----------------|---4-4---4-------|
B|-----------------|---------------4-|-4-7-7---7-----4-|-7---------4-7-4-|
   1 + 2 + 3 + 4 +   1 + 2 + 3 + 4 +   1 + 2 + 3 + 4 +   1 + 2 + 3 + 4 +

G|-----------------|-----------------|-----------------|-----------------|
D|-----------------|-----------------|-----------------|-----------------|
A|-----------------|-4-6-7---7-------|-----------------|-----------------|
E|-4-4-4---4-----4-|-----------------|-----------------|---4-4---4-------|
B|-----------------|---------------4-|---7-7---7-----4-|-7-----7-------4-|
   1 + 2 + 3 + 4 +   1 + 2 + 3 + 4 +   1 + 2 + 3 + 4 +   1 + 2 + 3 + 4 +

G|-----------------|-----------------|-----------------|-----------------|
D|-----------------|-----------------|-----------------|-----------------|
A|-----------------|-4-6-7---7-------|-----------------|-----------------|
E|-4-4-4---4-----4-|-----------------|-----------------|/7-6-4--/7-6-4---|
B|-----------------|---------------4-|-4-7-7---7-----4-|-------7-------7-|
   1 + 2 + 3 + 4 +   1 + 2 + 3 + 4 +   1 + 2 + 3 + 4 +   1 + 2 + 3 + 4 +


[FINAL CHORUS]

G|-----------------|-----------------|-----------------|-----------------|
D|-----------------|-----------------|-----------------|-----------------|
A|-----------------|-----------------|-----------------|-----------------|
E|-----------------|-----------------|-----------------|-----------------|
B|-5\--------------|-----------------|-----------------|-----------------|
   1 + 2 + 3 + 4 +   1 + 2 + 3 + 4 +   1 + 2 + 3 + 4 +   1 + 2 + 3 + 4 +

4 measures tacet
3 measures tacet

G|-----------------|
D|-----------------|
A|-7---------------|
E|-----------------|
B|-----------------|
   1 + 2 + 3 + 4 +

(back to original chorus structure)

G|-----------------|-----------------|-----------------|-----------------|
D|-----------------|-----------------|-----------------|-----------------|
A|-----------------|-----------------|-----------------|---------7-6-4---|
E|-----------------|-----------------|-----------------|-------7-------7-|
B|-5---5-----5---7-|---7-7---7-7---7-|-4-------4-4---4-|-5---------------|
   1 + 2 + 3 + 4 +   1 + 2 + 3 + 4 +   1 + 2 + 3 + 4 +   1 + 2 + 3 + 4 +

G|-----------------|-----------------|-----------------|---------------------|
D|-----------------|-----------------|-----------------|-----8/9---8/9-8-6---|
A|-----------------|-----------------|-----------------|---6-----------------|
E|-----------------|-----------------|-4-4-4---4-----4-|---------------------|
B|-5-5-5---5-5---7-|---7-7---7-4-7-4-|-----------4-7---|---------------------|
   1 + 2 + 3 + 4 +   1 + 2 + 3 + 4 +   1 + 2 + 3 + 4 +   1 + 2   + 3   + 4 +

G|-----------------|-----------------|-----------------|-------------------|
D|-----------------|-----------------|-----------------|-------------------|
A|-7-7-7---7-4-----|-----------------|---------6-6---6-|-6/7-7-----7-6-4---|
E|-------------7-4-|-----------------|-------6---------|---------7-------7-|
B|-----------------|-7-7-7---7-7-7-7-|-4-4-------------|-------------------|
   1 + 2 + 3 + 4 +   1 + 2 + 3 + 4 +   1 + 2 + 3 + 4 +   1   + 2 + 3 + 4 +

G|-------------------|-----------------|-----------------------|------------------------|
D|-------------------|-----------------|-----------------------|------8/9---9/11-9------|
A|-7-7-7---7---7-7/9-|---9-9---9---9-9-|/11-11-11---------9-11-|---11--------------11-9-|
E|-----------7-------|-----------9-----|---------------11------|------------------------|
B|-------------------|-----------------|-----------------------|------------------------|
   1 + 2 + 3 + 4 +     1 + 2 + 3 + 4 +   1  +  2   + 3 +  4 +    1 +  2   + 3    + 4  +


[OUTRO]

G|-----------------|-----------------|-----------------|---------------------|
D|-----------------|-----------------|-----------------|---------------------|
A|-7-7-7---4-------|-----------------|-----------6---4-|-4/7-7---4-4/7-6-4---|
E|-----------7-4---|-----------------|--------/6-------|-------------------7-|
B|---------------7-|---7-7-----4-7-4-|-4-4---4---------|---------------------|
   1 + 2 + 3 + 4 +   1 + 2 + 3 + 4 +   1 + 2 + 3 + 4 +   1   + 2 + 3   + 4 +

G|-----------------|-----------------|-----------------|-------------------|
D|-----------------|-----------------|-----------------|-----6---6/9---8-6-|
A|-----------------|-----------------|-----------------|---6---------------|
E|-----------------|-------------4-7-|-4-4-4---------4-|-------------------|
B|-5-5---5-5-5---7-|-7-7---7-4-7-----|-----------4-7---|-------------------|
   1 + 2 + 3 + 4 +   1 + 2 + 3 + 4 +   1 + 2 + 3 + 4 +   1 + 2 + 3   + 4 +

G|-----------------|-----------------|-----------------|-------------------|
D|-----------------|-----------------|-----------------|-------------------|
A|-7-7-7-----------|-----------------|---------6-6---6-|-6/7-7-6---4-------|
E|---------7-------|-----------------|-------6---------|---------------7---|
B|-----------5-5-7-|-7-7-7-----7---7-|-4-4-------------|-------------------|
   1 + 2 + 3 + 4 +   1 + 2 + 3 + 4 +   1 + 2 + 3 + 4 +   1   + 2 + 3 + 4 +

G|-----------------|-----------------|-----------------|---------------------|
D|-----------------|-----------------|---------------6-|-----6/8---8/9-8-6---|
A|-----------------|-----------------|---------6-6-----|---6---------------9-|
E|-----------------|-------------4-7-|-4-4-4-----------|---------------------|
B|-5-5---x-5-5---7-|-7-7---7-4-7-----|-----------------|---------------------|
   1 + 2 + 3 + 4 +   1 + 2 + 3 + 4 +   1 + 2 + 3 + 4 +   1 + 2   + 3   + 4 +

(fade)
G|-----------------|-----------------|-----------------|---------------------|
D|-----------------|-----------------|-----------------|---------------------|
A|-7-7-7---4-------|-----------------|-----------6---4-|-4/7-7---4-4/7-6-4---|
E|-----------7-4---|-----------------|--------/6-------|-------------------7-|
B|---------------7-|---7-7-----4-7-4-|-4-4---4---------|---------------------|
   1 + 2 + 3 + 4 +   1 + 2 + 3 + 4 +   1 + 2 + 3 + 4 +   1   + 2 + 3   + 4 +


******************************
| x  dead note
| /  slide up
******************************
Suggest correction
Creating personal tab
Creating personal tab
You can edit any tab online and save it as your Personal.

You can edit, replace or remove any tab part or add personal notes – all changes will be seen only by you.

Personal tabs can be accessed anytime from any device, even offline.
Learn more »
Give kudos to tab author, rate the tab!
1 2 3 4 5
comments
print report bad tab
guest
You may want to rate the tab now too:
select rating
Wanna post a correction for this tab? Suggest correction