Oops, an error
Loading. Please wait.

Falling Tab

version 1
version 1

Whole song

20,774 views 15 this week
no commentswrite comment
1 2 3 4 5
excellent!
x 7
add to favorites
launch autoscroll
font size
0
reset
how to read this tab
guitar tuner
Autoscroll
slow
fast
+/-
esc
set tempo
stop
Help us to improve Ultimate-Guitar.com Take our survey!
×
Author
Capo
5th fret
Falling by: Keahiwai

Transcribed by: Melanie R. Saban
[homelyinning@yahoo.com]
http://www.smilingblue.tk


Standard tuning [EADGBE]
CAPO 5

Intro:

 G G/B    Am   D
E-----3--3---3--3----0--0---------2--2--2-3-----------|
B-----3--3---3--3----1--1-0-1-----3--3--3-------------|
G-----0--0---0--0----3--3---------2--2--2-------------|
D------------------------------0----------------------|
A----------2------0-----------------------------------|
E--3--------------------------------------------------|

 G G/B    Am   D
E-----3--3---3--3----0--0---------2--2--2-3-----------|
B-----3--3---3--3----1--1-0-1-----3--3--3-------------|
G-----0--0---0--0----3--3---------2--2--2-------------|
D------------------------------0----------------------|
A----------2------0-----------------------------------|
E--3--------------------------------------------------|

 G G/B    Am   D
E-----3--3---3--3----0--0---------2--2--2-3-----------|
B-----3--3---3--3----1--1-0-1-----3--3--3-------------|
G-----0--0---0--0----3--3---------2--2--2-------------|
D------------------------------0----------------------|
A----------2------0-----------------------------------|
E--3--------------------------------------------------|

[2nd Guitar]
E-----------3-2-----2-0--------------------------|
B---------3-------3------------------------------|
G-------0-------0--------------------------------|
D------------------------------------------------|
A------------------------------------------------|
E--3---------------------------------------------|


 G G/B    Am   D
E-----3--3---3--3----0--0---------2--2--2-3-----------|
B-----3--3---3--3----1--1-0-1-----3--3--3-------------|
G-----0--0---0--0----3--3---------2--2--2-------------|
D------------------------------0----------------------|
A----------2------0-----------------------------------|
E--3--------------------------------------------------|

[2nd Guitar]

E-----------3-2-----2-0--------------------------|
B---------3-------3------------------------------|
G-------0-------0--------------------------------|
D------------------------------------------------|
A------------------------------------------------|
E--3---------------------------------------------|
Verses:

 G G/B    Am   D
E-----3--3---3--3----0--0---------2--2--2-3-----------|
B-----3--3---3--3----1--1-0-1-----3--3--3-------------|
G-----0--0---0--0----3--3---------2--2--2-------------|  [8x]
D------------------------------0----------------------|
A----------2------0-----------------------------------|
E--3--------------------------------------------------|

Chorus:

But I think I'm fallin'... baby i'm fallin' for you...

 G G/B    Am   D
E-----3--3---3--3----0--0---------2--2--2-3-----------|
B-----3--3---3--3----1--1-0-1-----3--3--3-------------|
G-----0--0---0--0----3--3---------2--2--2-------------|
D------------------------------0----------------------|
A----------2------0-----------------------------------|
E--3--------------------------------------------------|

[2nd guitar]
E-----------3-2-----2-0--------------------------|
B---------3-------3------------------------------|
G-------0-------0--------------------------------|
D------------------------------------------------|
A------------------------------------------------|
E--3---------------------------------------------|

 G G/B    Am   D
E-----3--3---3--3----0--0---------2--2--2-3-----------|
B-----3--3---3--3----1--1-0-1-----3--3--3-------------|
G-----0--0---0--0----3--3---------2--2--2-------------|
D------------------------------0----------------------|
A----------2------0-----------------------------------|
E--3--------------------------------------------------|

 G G/B    Am   D
E-----3--3---3--3----0--0---------2--2--2-3-----------|
B-----3--3---3--3----1--1-0-1-----3--3--3-------------|
G-----0--0---0--0----3--3---------2--2--2-------------|
D------------------------------0----------------------|
A----------2------0-----------------------------------|
E--3--------------------------------------------------|

[2nd Guitar]
E-----------3-2-----2-0--------------------------|
B---------3-------3------------------------------|
G-------0-------0--------------------------------|
D------------------------------------------------|
A------------------------------------------------|
E--3---------------------------------------------|


 G G/B    Am   D
E-----3--3---3--3----0--0---------2--2--2-3-----------|
B-----3--3---3--3----1--1-0-1-----3--3--3-------------|
G-----0--0---0--0----3--3---------2--2--2-------------|
D------------------------------0----------------------|
A----------2------0-----------------------------------|
E--3--------------------------------------------------|

[2nd Guitar]
E------------------------------------------------|
B------------------------------------------------|
G------------------------------------------------|
D--------------0-2--4/5--4--5--2--0--------------|
A-----0--2--3------------------------------------|
E--3---------------------------------------------|


Verses:

 G G/B    Am   D
E-----3--3---3--3----0--0---------2--2--2-3-----------|
B-----3--3---3--3----1--1-0-1-----3--3--3-------------|
G-----0--0---0--0----3--3---------2--2--2-------------|  [8x]
D------------------------------0----------------------|
A----------2------0-----------------------------------|
E--3--------------------------------------------------|


[Repeat Chorus]


Bridge:

E------0--0---0--0----0--0---0--0-----0--0----0--0----0--0----0--0-|
B------0--0---0--0----0--0---0--0-----0--0----0--0----0--0----0--0-|
G------0--0---0--0----0--0---0--0-----2--2----2--2----0--0----0--0-|
D------------------------------------------------------------------|
A----------------------------------0-------0-----------------------|
E----0------0-------3------3------------------------3------3-------|

E------0--0---0--0-------2--2--2--3--------------------------------|
B------0--0---0--0-------3--3--3-----------------------------------|
G------2--2---2--2-------2--2--2-----------------------------------|
D---------------------2--------------------------------------------|
A---0-------0------------------------------------------------------|
E------------------------------------------------------------------|


[Repeat Chorus 2x]


Ad lib:

E-----------------------3-3-3-2-2-2----------------------------------|
B-----------3--1-[0]-1--------------/5-5-5--3-3-3--------------------|
G--0--2--4-----------------------------------------0-0-0-------------|
D--------------------------------------------------------4-4-4-------|
A--------------------------------------------------------------2-2-2-|
E--------------------------------------------------------------------|

         While fading...
E-----------------------------------------------------3-3-3---------|
B---------------------------------------3-3-3-----------------------|
G--------------------------0----0-2--4---------0-0-0--------0-0-0---|
D---------------------0--2------------------------------------------|
A--0-0-0------0--2--3-----------------------------------------------|
E-----------3-------------------------------------------------------|

I wanna tell you baby
You're the one that Im thinking of
But your heart is still with her
And I think she's the one that you love
I only want you happy
Even if it's not with me
Maybe one day
You'll open up your eyes and you'll see

[Chorus]
That I think Im falling
Maybe I'm falling for you
Yeah I think Im falling
Baby Im falling for you

[Verse 2]
From the first time
You laid your lips on mine
It feels like the smile on my face
Will last till the end of time
But Im not so sure
That you're the one that I should pursue
My mind tells me no
But my heart only says that it's you

[Chorus]

Bridge:
Only time will tell
The mystery has yet to unfold
Who's gonna feel love's warmth
And the other left in the cold

[Chorus]
Yet still I'm falling
Maybe im falling for you
yeah I think Im falling
Baby I'm falling for you
That I think Im falling
Maybe I'm falling for you
yeah I think Im falling
Baby Im falling for you


Feel free to e-mail me.. salamat po! Mabuhay... ---Mulan
Suggest correction
What's this?
You can suggest a correction to this tab. Community and Mods will review your correction and vote to approve or reject it.
comments
print report bad tab
guest
You may want to rate the tab now too:
select rating
Please do not post tabs as comments. Select "correction" instead!