Oops, an error
Loading. Please wait.

Falling Tab

version 3
version 3

Whole song

4,635 views 1 this week
no commentswrite comment
1 2 3 4 5
please rate
add to favorites
launch autoscroll
font size
0
reset
how to read this tab
guitar tuner
Tab Pro tools
  • play this tab
  • loop segment
  • change instrument
  • show fretboard
  • metronome
×
Best way to learn
"Falling"
Autoscroll
slow
fast
+/-
esc
set tempo
stop
Falling
tabbed by:Abbe Manuales
Email:brokn_i@yahoo.com
plszzz rate nyo naman kasi hindi pa ako masyadong magaling sa pagtab ng mga songs........

Intro and Stanzas
E-3-3-----3-|-------------|-------------|-------------|
A-----------|-2-2-------2-|-0-0---------|-------------|
D-----------|-----------0-|-------------|-0-0-------0-|
G-----------|-----------0-|-----------0-|-------------|
B-----3-3---|------3-3--3-|------1-1--0-|------3-3----|
e-----3-3---|------3-3--0-|------0-0--0-|------2-2----|


Chorus:
E-3-3-----3-|-------------|-------------|----------------|
A-----------|-2-2-------2-|-0-0---------|----------------|
D-----------|-----------0-|-------------|-0-0-------0----|
G-----------|-----------0-|-----------0-|----------------|
B-----3-3---|------3-3--3-|------1-1--0-|------3-3----3-3|
e-----3-3---|------3-3--0-|------0-0--0-|------2-2----2-2|

Bridge:

E--3-3-3-3-3-3-3-3-3---|--------------------|3x
A--2-2-2-2-2-2-2-2-2---|--3-3-3-3-3-3-3-3-3-|
D--0-0-0-0-0-0-0-0-0---|--2-2-2-2-2-2-2-2-2-|
G--0-0-0-0-0-0-0-0-0---|--0-0-0-0-0-0-0-0-0-|
B--3-3-3-3-3-3-3-3-0h1-|--1-1-1-1-1-1-1-1-1-|
e--0-0-0-0-0-0-0-0-0---|--0-0-0-0-0-0-0-0-0-|


E--3-3-3-3-3-3-3-3-3---|----------|----------|
A--2-2-2-2-2-2-2-2-2---|--3-3-3-3-|---------B|
D--0-0-0-0-0-0-0-0-0---|--2-2-2-2-|--0-0-0--r|
G--0-0-0-0-0-0-0-0-0---|--0-0-0-0-|--0-0-2--e|
B--3-3-3-3-3-3-3-3-0h1-|--1-1-1-1-|--3-3-3--a|
e--0-0-0-0-0-0-0-0-0---|--0-0-0-0-|--3-3-2--k|

Outro:

E-------------------------------------------------------------------------------|
A-------------------------------------------------------------------------------|
D--5-7------------------------------------------------------------4s6-6-6s4-4-4-|
G-------4-5s7-7--9-8-9---------------------------------6-6-6s4-4-4--------------|
B-----------------------10-10-10--9-9-9--6s8-8-8s6-6-6--------------------------|
e-------------------------------------------------------------------------------|

E--5-7--------------------------------------------------------------------------|
A------4-5-7--------------------------------------------------------------------|
D------------5-7s9--8-9-9s11---------9-9-9----------9-9-9-----------------------|
G----------------------------11-11-11---------------------8s10-10-10s8-8--------|
B------------------------------------------12-12-12-----------------------------|
e-------------------------------------------------------------------------------|
comments
We did not receive enough feedback on this tab! Please rate:
print report bad tab
1 2 3 4 5
I want to post or [tab]
guest
You may want to rate the tab now too:
select rating
Please do not post tabs as comments. Select "correction" instead!