Oops, an error
Loading. Please wait.

Bedshaped Tab

version 1
version 1

Intro

Whole song

Interactive

1,243 views 6 this week
no commentswrite comment
1 2 3 4 5
x 3
add to favorites
launch autoscroll
font size
0
reset
how to read this tab
guitar tuner
Autoscroll
slow
fast
+/-
esc
set tempo
stop
Help us to improve Ultimate-Guitar.com Take our survey!
×
Author
Difficulty
intermediate
-------------------------------------------------------------------------------
                             Bedshaped - Keane
-------------------------------------------------------------------------------
Tabbed by: Liam Walker
Email: liam.walker@warwick.ac.uk

Tuning: Standard [EADGBE]

Synth:
e|-14-14-14-14-14-14-14-14-14-16-16-16-16-16-16-16-16|
B|o--------------------------------------------------|
G|---------------------------------------------------|
D|---------------------------------------------------|
A|o--------------------------------------------------|
E|---------------------------------------------------|


e|-9-9-9-9-9-9-9-9-9-9-9-9-9-9-9-9-9--9-9-9-9-9------|
B|----------------------------------o----------------|
G|---------------------------------------------------|
D|---------------------------------------------------|
A|----------------------------------o----------------|
E|---------------------------------------------------|

Piano (Cheat version):
e|------12-11--------9-7--------9-7--------------|
B|9-9-9-------9--9-9-----------------------------|
G|-----------------------9--9-9-----8--8-8-9-9--9|
D|-----------------------------------------------|
A|-----------------------------------------------|
E|-----------------------------------------------|

E|----12-11--------9-7-9--------9-7--------------|
B|----------9--9-9-------------------------------|
G|9-9--------------------9--9-9-----8--8-8-9-9--9|
D|-----------------------------------------------|
A|-----------------------------------------------|
E|-----------------------------------------------|

Piano (Accurate version):

E|-4--4----11-4--4---9-7-0--0-----7--------0--0-0-|
B|-5----55----5----------2--2-2-2---4--4-0-0------|
G|-4-----4----6--6-6-----1--1--11---4--4------2-1-|
D|------------------------------------------------|
A|------------------------------------------------|
E|------------------------------------------------|

E|----4----11-4--4---9-7-9----------7--------0--0-0-|
B|-5----55----5------------2--2-2-2---4--4-0-0------|
G|-4-----4----6--6-6-------1--1--11---4--4------2-1-|
D|--------------------------------------------------|
A|--------------------------------------------------|
E|--------------------------------------------------|
Suggest correction
Give kudos to tab author, rate the tab!
1 2 3 4 5
comments
print report bad tab
guest
You may want to rate the tab now too:
select rating
Wanna post a correction for this tab? Suggest correction