Oops, an error
Loading. Please wait.

Crystal Ball bass

version 2
version 2

Whole song

by Keane
391 views 9 this week
no commentswrite comment
1 2 3 4 5
x 3
add to favorites
×
Save as Personal and add changes to this tab that will be seen only by you. Learn more ›
×
You can save this tab as Personal to edit and correct it or add notes. All changes will be seen only by you. Learn more »
launch autoscroll
font size
0
reset
guitar tuner
edit
Autoscroll
slow
fast
+/-
esc
set tempo
stop
Author
Difficulty
--------------------------------------------------------------------------
                                          Artist - Keane
                                         ****************
                                       Song - Crystal Ball   
                                      *********************
                                    Album - Under The Iron Sea  
                                   ****************************
                                       Tabbed By - Ayreon77
                                      **********************
--------------------------------------------------------------------------
Tuning = Standard


00:15
INTRO
******
G|-----------------|-----------------|-----------------|-----------------|
D|-4-4-4-4-4-4-4-4-|-----------------|-----------------|-----------------|
A|-----------------|-4-4-4-4-4-4-4-4-|-6-6-6-6-6-8-8-8-|-----------4-4-4-|
E|-----------------|-----------------|-----------------|-5-5-5-5-5-------|


G|-----------------|-----------------|---------------|-----------------|
D|-4-4-4-4-4-3-3-3-|-----------------|---------------|-----------------|
A|-----------------|-4-4-4-4-4-------|-6-6-6-6-6-4-4-|-6-6-6-6-6-4-4-4-|
E|-----------------|-----------6-6-6-|---------------|-----------------|


-------------------------
00:30
VERSE 1
********
   Who   is    the   man    I     see
G|-----------------|-----------------|-----------------|-----------------|
D|-----------------|-----------------|-4-4-4-4-4-3-3-4-|-4-4-4-4-4-3-3-3-|
A|-----------------|-----------------|-----------------|-----------------|
E|-4-4-4-4-4-4-4-4-|-6-6-6-6-6-6-6-6-|-----------------|-----------------|

   Where   I'm  supposed    to    be
G|-----------------|-----------------|-----------------|-----------------|
D|-----------------|-----------------|-4-4-4-4-4-3-3-4-|-4-4-4-4-4-3-3-3-|
A|-----------------|-----------------|-----------------|-----------------|
E|-4-4-4-4-4-4-4-4-|-6-6-6-6-6-6-6-6-|-----------------|-----------------|

  I    lost    my    heart,      I     buried  it  too  deep
G|-----------------|-----------------|-----------------|----------------|
D|-----------------|-----------------|-4-4-4-4-4-4-4-4-|----------------|
A|-----------------|-----------------|-----------------|-6-6-6-6--4-4-6-|
E|-4-4-4-4-4-4-4-4-|-6-6-6-6-6-6-6-6-|-----------------|----------------|

  Under the iron sea
G|-----------------|-----------------|----------------|----------------|
D|-----------------|-----------------|----------------|----------------|
A|-----------------|-----------------|-6-6-6-6--4-4-6-|-6-6-6-6--4-4-6-|
E|-4-4-4-4-4-4-4-4-|-6-6-6-6-6-6-6-6-|----------------|----------------|


-------------------------
01:01
CHORUS
*******
  Oh, crystal ball, crystal ball      Save us all,      tell me life is beautiful
G|-----------------|-----------------|-----------------|-----------------|
D|-4-4-4-4-4-4-4-4-|-----------------|-----------------|-----------------|
A|-----------------|-4-4-4-4-4-4-4-4-|-6-6-6-6-6-8-8-8-|-----------4-4-4-|
E|-----------------|-----------------|-----------------|-5-5-5-5-5-------|

  Mirror, mirror    on the wall
G|-----------------|-----------------|---------------|-----------------|
D|-4-4-4-4-4-3-3-3-|-----------------|---------------|-----------------|
A|-----------------|-4-4-4-4-4-------|-6-6-6-6-6-4-4-|-6-6-6-6-6-4-4-4-|
E|-----------------|-----------6-6-6-|---------------|-----------------|


-------------------------
01:16
VERSE 2
********
    Lines    ever       more       unclear
G|-----------------|-----------------|-----------------|-----------------|
D|-----------------|-----------------|-4-4-4-4-4-3-3-4-|-4-4-4-4-4-3-3-3-|
A|-----------------|-----------------|-----------------|-----------------|
E|-4-4-4-4-4-4-4-4-|-6-6-6-6-6-6-6-6-|-----------------|-----------------|

   I'm not sure I'm     even         here
G|-----------------|-----------------|-----------------|-----------------|
D|-----------------|-----------------|-4-4-4-4-4-3-3-4-|-4-4-4-4-4-3-3-3-|
A|-----------------|-----------------|-----------------|-----------------|
E|-4-4-4-4-4-4-4-4-|-6-6-6-6-6-6-6-6-|-----------------|-----------------|

  The   more   I     look    the     more I think that I'm
G|-----------------|-----------------|-----------------|----------------|
D|-----------------|-----------------|-4-4-4-4-4-4-4-4-|----------------|
A|-----------------|-----------------|-----------------|-6-6-6-6--4-4-6-|
E|-4-4-4-4-4-4-4-4-|-6-6-6-6-6-6-6-6-|-----------------|----------------|

  Starting    to     disappear
G|-----------------|-----------------|----------------|----------------|
D|-----------------|-----------------|----------------|----------------|
A|-----------------|-----------------|-6-6-6-6--4-4-6-|-6-6-6-6--4-4-6-|
E|-4-4-4-4-4-4-4-4-|-6-6-6-6-6-6-6-6-|----------------|----------------|


-------------------------
01:47
CHORUS
*******
  Oh, crystal ball,    hear my song     fading out,      everything I know is wrong
G|-----------------|-----------------|-----------------|-----------------|
D|-4-4-4-4-4-4-4-4-|-----------------|-----------------|-----------------|
A|-----------------|-4-4-4-4-4-4-4-4-|-6-6-6-6-6-8-8-8-|-----------4-4-4-|
E|-----------------|-----------------|-----------------|-5-5-5-5-5-------|

  Mirror, mirror    on the wall
G|-----------------|-----------------|---------------|-----------------|
D|-4-4-4-4-4-3-3-3-|-----------------|---------------|-----------------|
A|-----------------|-4-4-4-4-4-------|-6-6-6-6-6-4-4-|-6-6-6-6-6-4-4-4-|
E|-----------------|-----------6-6-6-|---------------|-----------------|

02:03
  Oh, crystal ball, crystal ball      Save us all,      tell me life is beautiful
G|-----------------|-----------------|-----------------|-----------------|
D|-4-4-4-4-4-4-4-4-|-----------------|-----------------|-----------------|
A|-----------------|-4-4-4-4-4-4-4-4-|-6-6-6-6-6-8-8-8-|-----------4-4-4-|
E|-----------------|-----------------|-----------------|-5-5-5-5-5-------|

  So   put   me   where    I    belong
G|-----------------|-----------------|---------------|-----------------|
D|-4-4-4-4-4-3-3-3-|-----------------|---------------|-----------------|
A|-----------------|-4-4-4-4-4-------|-6-6-6-6-6-4-4-|-6-6-6-6-6-4-4-4-|
E|-----------------|-----------6-6-6-|---------------|-----------------|


-------------------------
02:18
BRIDGE
*******
  I  don't  where  I am               And I don't really care
G|-----------------|-----------------|-----------------|-----------------|
D|-----------------|-----------------|-----------------|-----------------|
A|-----------------|-4-4-4-4-4-4-4-4-|-6-6-6-6-6-6-6-6-|-----------------|
E|-4-4-4-4-4-4-4-4-|-----------------|-----------------|-4-4-4-4-4-4-4-4-|

  I  look  myself    in  eye There's    no one         there
G|-----------------|-----------------|--------------|-----------------|
D|-----------------|-----------------|--------------|-----------------|
A|-8-8-8-8-8-8-8-8-|-----------------|-9-9-9-8--8-8-|-6-6-6-6-6-6-6-6-|
E|-----------------|-6-6-6-6-6-6-6-6-|--------------|-----------------|

  I  fall  upon  the earth            I call upon the air
G|-----------------|-----------------|-----------------|-----------------|
D|-----------------|-----------------|-----------------|-----------------|
A|-----------------|-8-8-8-8-8-8-8-8-|-6-6-6-6-6-6-6-6-|-----------------|
E|-4-4-4-4-4-4-4-4-|-----------------|-----------------|-4-4-4-4-4-4-4-4-|

  But  all  I  get  is  the  same old    vacant stare
G|-----------------|-----------------|--------------|-----------------|
D|-----------------|-----------------|--------------|-----------------|
A|-8-8-8-8-8-8-8-8-|-----------------|-9-9-9-8--8-8-|-6-6-6-6-6-6-6-6-|
E|-----------------|-6-6-6-6-6-6-6-6-|--------------|-----------------|


-------------------------
02:49
CHORUS
*******
  Oh, crystal ball, crystal ball      Save us all,      tell me life is beautiful
G|-----------------|-----------------|-----------------|-----------------|
D|-4-4-4-4-4-4-4-4-|-----------------|-----------------|-----------------|
A|-----------------|-4-4-4-4-4-4-4-4-|-6-6-6-6-6-8-8-8-|-----------4-4-4-|
E|-----------------|-----------------|-----------------|-5-5-5-5-5-------|

  Mirror, mirror    on the wall
G|-----------------|-----------------|---------------|-----------------|
D|-4-4-4-4-4-3-3-3-|-----------------|---------------|-----------------|
A|-----------------|-4-4-4-4-4-------|-6-6-6-6-6-4-4-|-6-6-6-6-6-4-4-4-|
E|-----------------|-----------6-6-6-|---------------|-----------------|

  Oh, crystal ball,    hear my song     fading out,      everything I know is wrong
G|-----------------|-----------------|-----------------|-----------------|
D|-4-4-4-4-4-4-4-4-|-----------------|-----------------|-----------------|
A|-----------------|-4-4-4-4-4-4-4-4-|-6-6-6-6-6-8-8-8-|-----------4-4-4-|
E|-----------------|-----------------|-----------------|-5-5-5-5-5-------|

  So put me where    I belong
G|-----------------|-----------------|---------------|-----------------|
D|-4-4-4-4-4-3-3-3-|-----------------|---------------|-----------------|
A|-----------------|-4-4-4-4-4-------|-6-6-6-6-6-4-4-|-6-6-6-6-6-4-4-4-|
E|-----------------|-----------6-6-6-|---------------|-----------------|


-------------------------
03:20
SYNTH
******
G|-----------------|-----------------|-----------------|-----------------|
D|-4-4-4-4-4-4-4-4-|-----------------|-4-4-4-4-4-4-4-4-|-----------------|
A|-----------------|-----------------|-----------------|-----------------|
E|-----------------|-6-6-6-6-6-6-6-6-|-----------------|-6-6-6-6-6-6-6-6-|

G|-----------------|-----------------|-----------------|-----------------|
D|-4-4-4-4-4-4-4-4-|-----------------|-4-4-4-4-4-4-4-4-|-----------------|
A|-----------------|-----------------|-----------------|-----------------|
E|-----------------|-6-6-6-6-6-6-6-6-|-----------------|-6-6-6-6-6-6-6-6-|

G|-----------------|-----------------|-----------------|-----------------|
D|-4-4-4-4-4-4-4-4-|-----------------|-4-4-4-4-4-4-4-4-|-----------------|
A|-----------------|-----------------|-----------------|-----------------|
E|-----------------|-6-6-6-6-6-6-6-6-|-----------------|-6-6-6-6-6-6-6-6-|

G|-----------------|-----------------|-----------------|-------------------|
D|-4-4-4-4-4-4-4-4-|-----------------|-4-4-4-4-4-4-4-4-|-------------------|
A|-----------------|-----------------|-----------------|----------------s--|
E|-----------------|-6-6-6-6-6-6-6-6-|-----------------|-6-6-6-6-6-6-6-2\6-|



ENJOY........

            
            
Suggest correction
Creating personal tab
Creating personal tab
You can edit any tab online and save it as your Personal.

You can edit, replace or remove any tab part or add personal notes – all changes will be seen only by you.

Personal tabs can be accessed anytime from any device, even offline.
Learn more »
Give kudos to tab author, rate the tab!
1 2 3 4 5
comments
print report bad tab
guest
You may want to rate the tab now too:
select rating
Wanna post a correction for this tab? Suggest correction