Oops, an error
Loading. Please wait.
We have an official Everybodys Changing tab made by UG professional guitarists. Check out the tab »
×
by Keane
76 views 1 this week
no commentswrite comment
1 2 3 4 5
2 more votes to show rating
add to favorites
×
Save as Personal and add changes to this tab that will be seen only by you. Learn more ›
×
You can save this tab as Personal to edit and correct it or add notes. All changes will be seen only by you. Learn more »
launch autoscroll
font size
0
reset
guitar tuner
edit
Autoscroll
slow
fast
+/-
esc
set tempo
stop
Author
Everybody’s Changing
Released by Keane in 2004 peaked at number 4 in UK. Bass performance
Tim Rice-Oxley. Tab by bass50611.  As original I think that includes 
All the bass Slides.  This is a great, great song.

Intro:
G|--------------------------------------------------------------------|
D|--------------------------------------------------------------------|
A|-3-3-3-3-3-3-3-3--3-3-3-3-3-3-3-3/8-8-8-8-8-8-8-8--8-8-8-8-8-8-8-8\-|
E|--------------------------------------------------------------------|

G|---------------------------------------------------------|
D|---------------------------------------------------------|
A|-5-5-5-5-5-5-5-5/10-10-10-10-10-10-10-10\3-3-3-3-3-3-3-3-|
E|---------------------------------------------------------|

G|-----------------|
D|-----------------|
A|-3-3-3-3-3-3-3-3-|
E|-----------------|

Verse 1:
G|--------------------------------------------------------------------|
D|--------------------------------------------------------------------|
A|-3-3-3-3-3-3-3-3--3-3-3-3-3-3-3-3/8-8-8-8-8-8-8-8--8-8-8-8-8-8-8-8\-|
E|--------------------------------------------------------------------|

G|---------------------------------------------------------|
D|---------------------------------------------------------|
A|-5-5-5-5-5-5-5-5/10-10-10-10-10-10-10-10\3-3-3-3-3-3-3-3-|
E|---------------------------------------------------------|

G|-----------------|
D|-----------------|
A|-3-3-3-3-3-3-3-3-|
E|-----------------|

Verse 2:
G|--------------------------------------------------------------------|
D|--------------------------------------------------------------------|
A|-3-3-3-3-3-3-3-3--3-3-3-3-3-3-3-3/8-8-8-8-8-8-8-8--8-8-8-8-8-8-8-8\-|
E|--------------------------------------------------------------------|

G|---------------------------------------------------------|
D|---------------------------------------------------------|
A|-5-5-5-5-5-5-5-5/10-10-10-10-10-10-10-10\----------------|
E|-----------------------------------------5-5-5-5-5-5-5-5-|

G|-----------------|
D|-----------------|
A|-----------------|
E|-5-5-5-5-5-5-5-5-|

Chorus 1:
G|------------------------------------------------------------------------|
D|------------------------------------------------------------------------|
A|-8-8-8-8-8-8-8/10-10-10-10-10-10-10-10\3-3-3-3-3-3-3-3/8-8-8-8-8-8-8-8\-|
E|------------------------------------------------------------------------|

G|-----------------------------------------------------------------|
D|-----------------5-5-5-5-5-5-5-5-----------------7-7-7-7-7-7-7-7-|
A|-5-5-5-5-5-5-5-5-----------------7-7-7-7-7-7-7-7-----------------|
E|-----------------------------------------------------------------|

G|-------------------------------------------------------------------|
D|-----------------5-5-5-5-5-5-5-5-----------------------------------|
A|-5-5-5-5-5-5-5-5-----------------3-3-3-3-3-3-3-3---3-3-3-3-3-3-3-3-|
E|-------------------------------------------------------------------|

Bridge:
G|---------------------------------------------------------
D|-------------------------------------------5---5---5---5-
A|-5h7--7-5h7--7-5h7--7-5h7--7-5h7--7-5h7--7---------------
E|---------------------------------------------------------

Verse 3;
G|--------------------------------------------------------------------|
D|--------------------------------------------------------------------|
A|-3-3-3-3-3-3-3-3--3-3-3-3-3-3-3-3/8-8-8-8-8-8-8-8--8-8-8-8-8-8-8-8\-|
E|--------------------------------------------------------------------|

G|---------------------------------------------------------|
D|---------------------------------------------------------|
A|-5-5-5-5-5-5-5-5/10-10-10-10-10-10-10-10\----------------|
E|-----------------------------------------5-5-5-5-5-5-5-5-|

G|-----------------|
D|-----------------|
A|-----------------|
E|-5-5-5-5-5-5-5-5-|

Chorus 2:
G|------------------------------------------------------------------------|
D|------------------------------------------------------------------------|
A|-8-8-8-8-8-8-8/10-10-10-10-10-10-10-10\3-3-3-3-3-3-3-3/8-8-8-8-8-8-8-8\-|
E|------------------------------------------------------------------------|

G|-----------------------------------------------------------------|
D|-----------------5-5-5-5-5-5-5-5-----------------7-7-7-7-7-7-7-7-|
A|-5-5-5-5-5-5-5-5-----------------7-7-7-7-7-7-7-7-----------------|
E|-----------------------------------------------------------------|

G|---------------------------------|
D|-----------------5-5-5-5-5-5-5-5-|
A|-5-5-5-5-5-5-5-5-----------------|
E|---------------------------------|

Solo:
G|--------------------------------------------------------------------|
D|--------------------------------------------------------------------|
A|-3-3-3-3-3-3-3-3--3-3-3-3-3-3-3-3/8-8-8-8-8-8-8-8--8-8-8-8-8-8-8-8\-|
E|--------------------------------------------------------------------|

G|-----------------------------------------------------------|
D|-----------------------------------------------------------|
A|-5-5-5-5-5-5-5-5/10-10-10-10-10-10-10-10\------------------|
E|-----------------------------------------5-5-5-5-5-5-5-5-5-|

G|-----------------|
D|-----------------|
A|-----------------|
E|-5-5-5-5-5-5-5-5-|

Chorus 3:
G|------------------------------------------------------------------------|
D|------------------------------------------------------------------------|
A|-8-8-8-8-8-8-8/10-10-10-10-10-10-10-10\3-3-3-3-3-3-3-3/8-8-8-8-8-8-8-8\-|
E|------------------------------------------------------------------------|

G|-----------------------------------------------------------------|
D|-----------------5-5-5-5-5-5-5-5-----------------7-7-7-7-7-7-7-7-|
A|-5-5-5-5-5-5-5-5-----------------7-7-7-7-7-7-7-7-----------------|
E|-----------------------------------------------------------------|

G|------------------------------------------------------------------------|
D|-----------------5-5-5-5-5-5-5-5---7-7-7-7--5h7-7-7--5h7-7-7-7--5h7-7-7-|
A|-5-5-5-5-5-5-5-5--------------------------------------------------------|
E|------------------------------------------------------------------------|

Outro:                              (End ~ Bass chord)
G|-----------------------------------5-|
D|-----------------5-5-5-5-5-5-5-5-----|
A|-5-5-5-5-5-5-5-5-------------------3-|
E|-------------------------------------|




You say you wander your own land
But when I think about it
I don't see how you can
You're aching, you're breaking
And I can see the pain in your eyes
Says everybody's changing
And I don't know why

So little time
Try to understand that I'm
Trying to make a move just to stay in the game
I try to stay awake and remember my name
But everybody's changing
And I don't feel the same

You're gone from here
And soon you will disappear
Fading into beautiful light
Cause everybody's changing
And I don't feel right

So little time
Try to understand that I'm
Trying to make a move just to stay in the game
I try to stay awake and remember my name
But everybody's changing
And I don't feel the same

So little time
Try to understand that I'm
Trying to make a move
Just to stay in the game
I try to stay awake and remember my name
But everybody's changing
And I don't feel the same

Everybody's changing
And I don't feel the same

            
            
Suggest correction
Creating personal tab
Creating personal tab
You can edit any tab online and save it as your Personal.

You can edit, replace or remove any tab part or add personal notes – all changes will be seen only by you.

Personal tabs can be accessed anytime from any device, even offline.
Learn more »
Give kudos to tab author, rate the tab!
1 2 3 4 5
comments
print report bad tab
guest
You may want to rate the tab now too:
select rating
Wanna post a correction for this tab? Suggest correction