Oops, an error
Loading. Please wait.

Snowed Under Chords

10,146 views 9 this week
3 commentsread comments
1 2 3 4 5
excellent!
x 6
add to favorites
launch autoscroll
font size
0
reset
transpose
0
reset
simplify chords
display chords
guitar tuner
Autoscroll
slow
fast
+/-
esc
set tempo
stop
Help us to improve Ultimate-Guitar.com Take our survey!
×
Author
Difficulty
intermediate
Snowed Under - Keane

Bb7- X13131
C/E- XX2010
Gm- 355333



Intro:  F Gm Dm Csus4 C "2x"

F          Gm                Dm  Csus4 C F
 There's a cold voice on the air... 
            Gm           Dm Csus4 C Dm
You've been looking everywhe...re 
    C             Bb       
Someone to understand your hopes and fears, 
         Dm                     C/E               Bb7
Well ive thought about that for many a long years. 


F     Gm                      Dm  Csus4 C F
 So I walk through Manser's shaw 
       Gm          Dm Csus4 C Dm
I dont see you anymo...re, 
   C              Bb       
We love to think about the way things were, 
        Dm                   C/E            F   
But the time has come and im glad its over. 


       C/E        Gm            Csus4 C 
I dont know why I waste my time, 
Dm                        C                 
Getting hung up about the things you say 
       Bb                     C           F
When I open my eyes and its a lovely day, 
    C/E              Gm        Csus4 C 
You know sometimes I feel like I'm     
Dm                             C
Getting snowded under with the things you say, 
       Bb                     C           F
When I open my eyes and its a lovely day. 


        Gm                   Dm Csus4 C F
Now you think that you're alo...ne, 
       Gm                  Dm Csus4 C Dm
So you make your way back ho...me, 
    C                 Bb       
I'd love to greet the weary travel, 
         Dm                   C/E            F   
But your time has gone and im glad its over. 


       C/E        Gm            Csus4 C 
I dont know why I waste my time, 
Dm                        C                 
Getting hung up about the things you say 
       Bb                     C           F
When I open my eyes and its a lovely day, 
    C/E              Gm        Csus4 C 
You know sometimes I feel like I'm     
Dm                             C
Getting snowded under with the things you say, 
       Bb                     C           F
When I open my eyes and its a lovely day. 


F Gm Dm Csus4 C "3x" F Gm F

       C/E        Gm            Csus4 C 
I dont know why I waste my time, 
Dm                        C                 
Getting hung up about the things you say 
       Bb                     C           F
When I open my eyes and its a lovely day, 
    C/E              Gm        Csus4 C 
You know sometimes I feel like I'm     
Dm                             C
Getting snowded under with the things you say, 
       Bb                     C           F
When I open my eyes and its a lovely day. 
F Gm Dm Csus4 C F
Suggest correction
What's this?
You can suggest a correction to this tab. Community and Mods will review your correction and vote to approve or reject it.
comments
print report bad tab
3 comments total.
0 reply
cookwerth 15 wrote on June 2 2010, 08:13 am

spot on, thanks

0 reply
LiamNCFC 93 wrote on December 14 2012, 11:43 am

Capo 5th:



E|---0-1-3-|---0-1-3-|---01-010-|---------|
B|---1-1-1-|-1-1-1-1-|-1-11--1--|-1-1-----|
G|---0-0-0-|-2-2-2-2-|-2-22--2--|-0-0-4-4-|
D|---------|---------|----------|-2-2-3-3-|
A|---------|---------|----------|-----5-5-|
E|---------|---------|----------|---------|

E|---0-1-3-|---0-1-3-|---01-010-|---------|
B|-1-1-1-1-|-1-1-1-1-|-1-11--1--|-1-1-----|
G|-0-0-0-0-|-2-2-2-2-|-2-22--2--|-0-0-4-4-|
D|-2-------|---------|----------|-2-2-3-3-|
A|---------|---------|----------|-----5-5-|
E|---------|---------|----------|---------|


No Capo:

E|---5-6-8-|---5-6-8-|---56-565-|-1-1-----|
B|---6-6-6-|-6-6-6-6-|-6-66--6--|-1-1-5-5-|
G|---5-5-5-|-7-7-7-7-|-7-77--7--|-2-2-3-3-|
D|---------|---------|----------|-----5-5-|
A|---------|---------|----------|---------|
E|---------|---------|----------|---------|

E|---5-6-8-|---5-6-8-|---56-565-|-1-1-----|
B|-6-6-6-6-|-6-6-6-6-|-6-66--6--|-1-1-5-5-|
G|-5-5-5-5-|-7-7-7-7-|-7-77--7--|-2-2-3-3-|
D|-7-------|---------|----------|-----5-5-|
A|---------|---------|----------|---------|
E|---------|---------|----------|---------|

0 reply
LiamNCFC 93 wrote on December 14 2012, 11:44 am

Capo 5th:



E|---0-1-3-|---0-1-3-|---01-010-|---------|
B|---1-1-1-|-1-1-1-1-|-1-11--1--|-1-1-----|
G|---0-0-0-|-2-2-2-2-|-2-22--2--|-0-0-4-4-|
D|---------|---------|----------|-2-2-3-3-|
A|---------|---------|----------|-----5-5-|
E|---------|---------|----------|---------|

E|---0-1-3-|---0-1-3-|---01-010-|---------|
B|-1-1-1-1-|-1-1-1-1-|-1-11--1--|-1-1-----|
G|-0-0-0-0-|-2-2-2-2-|-2-22--2--|-0-0-4-4-|
D|-2-------|---------|----------|-2-2-3-3-|
A|---------|---------|----------|-----5-5-|
E|---------|---------|----------|---------|


No Capo:

E|---5-6-8-|---5-6-8-|---56-565-|-1-1-----|
B|---6-6-6-|-6-6-6-6-|-6-66--6--|-1-1-5-5-|
G|---5-5-5-|-7-7-7-7-|-7-77--7--|-2-2-3-3-|
D|---------|---------|----------|-----5-5-|
A|---------|---------|----------|---------|
E|---------|---------|----------|---------|

E|---5-6-8-|---5-6-8-|---56-565-|-1-1-----|
B|-6-6-6-6-|-6-6-6-6-|-6-66--6--|-1-1-5-5-|
G|-5-5-5-5-|-7-7-7-7-|-7-77--7--|-2-2-3-3-|
D|-7-------|---------|----------|-----5-5-|
A|---------|---------|----------|---------|
E|---------|---------|----------|---------|

guest
You may want to rate the tab now too:
select rating
Please do not post tabs as comments. Select "correction" instead!