Oops, an error
Loading. Please wait.

Somewhere Only We Know Tab

version 2
version 2

Whole song

Interactive

21,406 views 114 this week
2 commentsread comments
1 2 3 4 5
accurate
x 7
add to favorites
launch autoscroll
font size
0
reset
how to read this tab
guitar tuner
Autoscroll
slow
fast
+/-
esc
set tempo
stop
Help us to improve Ultimate-Guitar.com Take our survey!
×
SOMEWHERE ONLY WE KNOW
By Keane
TABBED BY Sebastian Silva P.


[Intro]

e|--------------------------------------------|
B|---5-5-2-0-2-0-2-3-3-3-2-0-2-3-2-0-2-3-2----|            
G|-2------------------------------------------|   
D|--------------------------------------------|
A|--------------------------------------------|
E|--------------------------------------------|


RIFF1 AND RIFF2
e|--------------------------------------------|
B|---5-5-2-0-2-0-2-3-3-3-2-0-2-3-2-0-2-3-2----|            
G|-2------------------------------------------|   
D|--------------------------------------------|
A|--------------------------------------------|
E|--------------------------------------------|(x2)

RIFFS 3,4 AND PRE-CHORUS
e|-----------------------------------------------------|
B|---10-10-7----5-5------------------------------------|            
G|-6-----------6----7--7-7-7-7-6-4-6-7-6-4-6s7-7p6-----|   
D|-----------------------------------------------------|
A|-----------------------------------------------------|
E|-----------------------------------------------------|


[Chorus]

e|----------------------------|
B|--10-9-7-0-2-0-2-5-2-0------|            
G|----------------------------|
D|----------------------------|
A|----------------------------|
E|----------------------------|(x2)

e|----------------------------|
B|--2-0-5-2-0------2-0-55-2-0-|            
G|----------------------------|  
D|----------------------------|
A|----------------------------|
E|----------------------------|


[Pre-Chorus]

e|------------------------------------------------------|
B|---10-10-7-----5-5------------------------------------|            
G|-6-----------6-----7--7-7-7-7-6-4-6-7-6-4-6s7-7p6-----|   
D|------------------------------------------------------|
A|------------------------------------------------------|
E|------------------------------------------------------|

e|--------------------------------------------------------|
B|---10-10-7-5-2-0-2h5-3-2--3-3-3-3-2-0-2-2h3-2-0-2-2h3-5-|  
G|-6------------------------------------------------------|   
D|--------------------------------------------------------|
A|--------------------------------------------------------|
E|--------------------------------------------------------|


[Chorus]

(FINAL)
e|----------------------------|
B|--10-9-7-0-2-0-2-5-2-0------|            
G|----------------------------|   
D|----------------------------|
A|----------------------------|
E|----------------------------|(x2)


e|-------------------------------|
B|--2-0-5-2-0------2-0-5-5-2-0---|            
G|-------------------------------|  
D|-------------------------------|
A|-----------------------------0-|
E|-------------------------------|

I have written this tab only for you Emilia, don't forget that I love you!!
Yo he escrito esta canción para ti emilia, no olvides que yo te amo



************************************

| h  Hammer-on
| p  Pull-off
| s  slide

************************************
Suggest correction
comments
print report bad tab
2 comments total.
+1 reply
I See Dead Ppl 80 wrote on April 18 2005, 12:00 am

You tabbed the vocals....

0 reply
wraith88 42 wrote on April 24 2008, 11:40 pm

Yeah, he did tab the vocals, but luckily this was exactly what I was looking for. I'm layering it over the chords, and it just sounds beautiful.
Thanks, Emilia should be proud!

guest
You may want to rate the tab now too:
select rating
Wanna post a correction for this tab? Suggest correction