Oops, an error
Loading. Please wait.
We have an official Somewhere Only We Know tab made by UG professional guitarists. Check out the tab »
×

Somewhere Only We Know Tab

version 5
version 5

Whole song

Interactive

by Keane
316 views 9 this week
no commentswrite comment
1 2 3 4 5
3 more votes to show rating
add to favorites
×
Save as Personal and add changes to this tab that will be seen only by you. Learn more ›
×
You can save this tab as Personal to edit and correct it or add notes. All changes will be seen only by you. Learn more »
save as personal
new!
launch autoscroll
font size
0
reset
how to read this tab
guitar tuner
Autoscroll
slow
fast
+/-
esc
set tempo
stop
Author
Difficulty
novice
About this tab version
Tab of the vocal melody. Was this info helpful? Yes No
KEANE - SOMEWHERE ONLY WE KNOW

A simple version of the vocal melody from Keane's Somewhere Only We Know.
Second tab here, please leave a rating.

\ Slide down
| Dividers just to separate lines of the song to make it clearer 

Standard Tuning 
No Capo

[Verse 1]

e|---0-0----------|--------------------------|---0-0-----------|--------------------------|
B|-2-----2-0-2-0-2|-3-3-3-3--3-3-3-3-2-0-3-2-|-------2-0-2-2-2-|-3-3-3-3--3-3-3-3-2-0-3-2-|
G|----------------|--------------------------|-2---------------|--------------------------|
D|----------------|--------------------------|-----------------|--------------------------|
A|----------------|--------------------------|-----------------|--------------------------|
E|----------------|--------------------------|-----------------|--------------------------|
I walked across an empty land
I knew the pathway like the back of my hand
I felt the earth beneath my feet
Sat by the river and it made me complete

[Hook]

e|---5-5-2---0-0---|--------------------------|---5-5-2-------0-0---|----------------------------|
B|-2-------2-----2-|-3-3-3-3--3-3-3-2-0-2-3-2-|-2-------2-2-2-----2-|-3-3-3-3--3-3-3-3-2-0-2-3-2-|
G|-----------------|--------------------------|---------------------|----------------------------|
D|-----------------|--------------------------|---------------------|----------------------------|
A|-----------------|--------------------------|---------------------|----------------------------|
E|-----------------|--------------------------|---------------------|----------------------------|
Oh simple thing where have you gone?
I'm getting old and I need something to rely on
So tell me when you're gonna let me in
I'm getting tired and I need somewhere to begin

[Verse 2]

e|---0-0----------|--------------------------|---0-0-------0---|------------------------|
B|-0-----2-0-2-2-2|-3-3-3-3--3-3-3-3-2-0-3\2-|-------2-0-2---2-|-3-3-3-3--3-3-3-----3-2-|
G|----------------|--------------------------|-2---------------|----------------1-2-----|
D|----------------|--------------------------|-----------------|------------------------|
A|----------------|--------------------------|-----------------|------------------------|
E|----------------|--------------------------|-----------------|------------------------|

I came across a fallen tree
I felt the branches of it looking at me
Is this the place we used to love?
Is this the place that I've been dreaming of?

[Hook]

e|---5-5-2---0-0---|--------------------------|---5-5-2-------0-0---|----------------------------|
B|-2-------2-----2-|-3-3-3-3--3-3-3-2-0-2-3-2-|-2-------2-2-2-----2-|-3-3-3-3--3-3-3-3-2-0-2-3-2-|
G|-----------------|--------------------------|---------------------|----------------------------|
D|-----------------|--------------------------|---------------------|----------------------------|
A|-----------------|--------------------------|---------------------|----------------------------|
E|-----------------|--------------------------|---------------------|----------------------------|
Oh simple thing where have you gone?
I'm getting old and I need something to rely on
So tell me when you're gonna let me in
I'm getting tired and I need somewhere to begin

[Chorus]

e|---5-4-4-2-------0-----|-5-4-4-2-------0-----|-5-4-4-2-------0-----|
B|-----------2-0-2---2-0-|---------2-0-2---2-0-|---------2-0-2---2-0-|
G|-2---------------------|---------------------|---------------------|
D|-----------------------|---------------------|---------------------|
A|-----------------------|---------------------|---------------------|
E|-----------------------|---------------------|---------------------|
And if you have a minute why don't we go
Talk about it somewhere only we know?
This could be the end of everything

e|-----0-----|-------0-----|-----0-0-0-------|
B|-2-0---2-0-|-2-0-2---0---|-2-0-------0-1---|
G|-----------|-----------2-|---------------4-|
D|-----------|-------------|-----------------|
A|-----------|-------------|-----------------|
E|-----------|-------------|-----------------|
So why don't we go
Somewhere only we know?
Somewhere only we know?

[Hook]

e|---5-5-2---0-0---|--------------------------|---5-5-2-------0-0---|----------------------------|
B|-2-------2-----2-|-3-3-3-3--3-3-3-2-0-2-3-2-|-2-------2-2-2-----2-|-3-3-3-3--3-3-3-3-2-0-2-3-2-|
G|-----------------|--------------------------|---------------------|----------------------------|
D|-----------------|--------------------------|---------------------|----------------------------|
A|-----------------|--------------------------|---------------------|----------------------------|
E|-----------------|--------------------------|---------------------|----------------------------|
Oh simple thing where have you gone?
I'm getting old and I need something to rely on
So tell me when you're gonna let me in
I'm getting tired and I need somewhere to begin

[Chorus]

e|---5-4-4-2-------0-----|-5-4-4-2-------0-----|-5-4-4-2-------0-----|-----0-----|-----0-----|
B|-----------2-0-2---2-0-|---------2-0-2---2-0-|---------2-0-2---2-0-|-2-0---2-0-|-2-0---2-0-|
G|-2---------------------|---------------------|---------------------|-----------|-----------|
D|-----------------------|---------------------|---------------------|-----------|-----------|
A|-----------------------|---------------------|---------------------|-----------|-----------|
E|-----------------------|---------------------|---------------------|-----------|-----------|
And if you have a minute why don't we go
Talk about it somewhere only we know?
This could be the end of everything
So why don't we go?
So why don't we go?

[Outro]

e|-5-4-4-2-------0-----|-----0-----|-------0-----|-------0-----|-----0-0-0-------|
B|---------2-0-2---2-0-|-2-0---2-0-|-2-0-2---0---|-2-0-2---0---|-2-0-------0-1---|
G|---------------------|-----------|-----------2-|-----------2-|---------------4-|
D|---------------------|-----------|-------------|-------------|-----------------|
A|---------------------|-----------|-------------|-------------|-----------------|
E|---------------------|-----------|-------------|-------------|-----------------|
This could be the end of everything
So why don't we go
Somewhere only we know?
Somewhere only we know?
Somewhere only we know?


*****************************************************************

\ Slide down
| Dividers just to separate lines of the song to make it clearer 

*****************************************************************
Suggest correction
Give kudos to tab author, rate the tab!
1 2 3 4 5
comments
print report bad tab
guest
You may want to rate the tab now too:
select rating
Wanna post a correction for this tab? Suggest correction