Oops, an error
Loading. Please wait.

Somewhere Only We Know Tab

version 5
version 5

Whole song

Interactive

1,930 views 1 this week
no commentswrite comment
1 2 3 4 5
3 more votes to show rating
add to favorites
launch autoscroll
font size
0
reset
how to read this tab
guitar tuner
Autoscroll
slow
fast
+/-
esc
set tempo
stop
Help us to improve Ultimate-Guitar.com Take our survey!
×
Author
Difficulty
intermediate
                                      Somewhere Only We Know


                                                                                         
      Keane
Guitar


This is my solo arrangement of Keane - Somewhere Only We Know.

Comments, rating and feedback are really appreciated. If you like my work and want to 
thank me or to contribute helping me taking more time to arrange songs, please donate with 
the following link http://tinyurl.com/ckajzfx.

Thanks to whom donated thus far.


      A                                             C#m
      Q    Q    Q    Q       Q    Q    Q    Q       Q    Q    Q    Q       Q    Q    Q   
 Q
E||-----------------------|----------------------|----------------------|----------------------|
B||-----------------------|----------------------|----------------------|----------------------|
G||*--2----2----2----2----|--2----2----2----2----|--1----1----1----2----|--2----2----1----1----|
D||*----------------------|----------------------|--2--------------2----|------------2---------|
A||---0----0----0----0----|--0----0----0----0----|--4----4----4----4----|--4----4----4----4----|
E||-----------------------|----------------------|----------------------|----------------------|


  Bm                                            Esus4                   E
  Q    Q    Q    Q       Q    Q    Q    Q       Q     Q    Q    Q       Q    Q    Q    Q
----------------------|----------------------|-----------------------|-----------------------||
----------------------|----------------------|-----------------------|-----------------------||
--2----2----2----2----|--4----4----2----2----|--2-----2----2----1----|--1----1----2----2----*||
--4-------------------|--4---------4---------|--2-----2----2----2----|--2----2----2----2----*||
--2----2----2----2----|--2----2----2----2----|-----------------------|-----------------------||
----------------------|----------------------|-----------------------|-----------------------||


   A                                              C#m
   ^                                              ^
   Q    Q    Q    E  E     Q    Q    Q    Q       Q    E  Q.     E  E     Q    Q    Q    Q
-------------0----0-----|----------------------|-----------------------|----------------------|
---2-----------------2--|--L-------------------|--2----0--2------0--2--|--L-------------------|
*--2----2---------------|----------------------|--1--------------------|----------------------|
*--2--------------------|----------------------|--2--------------------|----------------------|
---0--------------0-----|--L----0----2----0----|--4--------------4-----|--L----4----4----5----|
------------------------|----------------------|-----------------------|----------------------|


  Bm                                              Esus4                     E
  ^
  Q    E  E  Q    E  E     Q    Q    Q    Q       Q     Q    Q    E   E     Q    Q    H
------------------------|----------------------|-------------------------|----------------------||
--3----3--3--3----3--3--|--L----3----3----3----|--3-----2----0----2h--3--|--L---------2---------||
--4---------------------|----------------------|-------------------------|---------------------*||
--4---------------------|----------------------|--2---------------2------|--L----x----2--------*||
--2---------------2-----|--x--------------2----|-------------------------|-------x----4---------||
------------------------|--x-------------------|-------------------------|--L----x--------------||


  F#m                                              C#m
  ^                                                ^
  Q    Q      Q    E  E     Q    Q    Q    Q       Q    Q      Q    E  E     Q    Q    Q 
   Q
------------4g5----5--2--|--L-------------------|-------------------------|----------------------|
--2----2-----------------|----------------------|--2----2----4g5----5--2--|--L-------------------|
--2----------------------|----------------------|--1----------------------|----------------------|
--4----------------------|----------------------|--2----------------------|----------------------|
--4----------------------|----------------------|--4----------------4-----|-------4----4----5----|
--2----------------2-----|--L----2----2----0----|-------------------------|----------------------|


  D                                                Esus4                   E
  ^
  Q    E   E  Q    E  E     Q    Q    Q    Q       Q     Q    Q    Q       Q    Q    H
-------------------------|----------------------|-----------------------|---------------------|
--3----2h--3--3----3--3--|--L----3----3----3----|--3-----2----0----2----|--3---------2--------|
--2----------------------|----------------------|-----------------------|---------------------|
--0----------------0-----|-----------------0----|--2---------------2----|--2----x----2--------|
-------------------------|--x-------------------|-----------------------|-------x-------------|
-------------------------|--x-------------------|-----------------------|-------x-------------|


  F#m                                              C#m
  ^                                                ^
  Q    Q    E   E  E  E     Q    Q    Q    Q       E   E  E  E  Q    E  E     Q    Q    Q
   Q
------------4h--5--5--2--|--L-------------------|--------------------------|----------------------|
--2----2-----------------|----------------------|--2---2--2--2--5----5--2--|--L-------------------|
--2----------------------|----------------------|--1-----------------------|----------------------|
--4----------------------|----------------------|--2-----------------------|----------------------|
--4----------------------|----------------------|--4-----------------4-----|-------4----4----5----|
--2----------------2-----|--L----2----2----0----|--------------------------|----------------------|


  D                                                Esus4                   E
  ^
  Q    E   E  Q    E  E     Q    Q    Q    Q       Q     Q    Q    Q       Q    Q    H
-------------------------|----------------------|-----------------------|---------------------|
--3----2h--3--3----3--3--|--L----3----3----3----|--3-----2----0----2----|--3---------2--------|
--2----------------------|----------------------|-----------------------|---------------------|
--0----------------0-----|-----------------0----|--2---------------2----|--2----x----2--------|
-------------------------|--x-------------------|-----------------------|-------x-------------|
-------------------------|--x-------------------|-----------------------|-------x-------------|


  A                                              C#m
  ^                                              ^
  Q    Q    Q    E  E     Q    Q    Q    Q       Q    E  E  Q    E   E     Q    Q    Q   
 Q
------------0----0-----|----------------------|-------------------------|----------------------|
--2-----------------2--|--L-------------------|--2----0--2--L----0h--2--|--L-------------------|
--2----2---------------|----------------------|--1----------------------|----------------------|
--2--------------------|----------------------|--2----------------------|----------------------|
--0--------------0-----|--L----0----2----0----|--4---------------4------|-------4----4----5----|
-----------------------|----------------------|-------------------------|----------------------|


  Bm                                             Esus4                     E
  ^
  Q    Q    Q    E  E     Q    Q    Q    Q       Q     Q    Q    E   E     Q    Q    H
-----------------------|----------------------|-------------------------|---------------------|
--3----3----3----3--3--|--L----3----3----3----|--3-----2----0----2h--3--|--L---------2--------|
--4--------------------|----------------------|-------------------------|---------------------|
--4--------------------|----------------------|--2---------------2------|--L----x----2--------|
--2--------------2-----|--x--------------2----|-------------------------|-------x-------------|
-----------------------|--x-------------------|-------------------------|-------x----0--------|


  A                                                C#m
  ^                                                ^
  Q    Q      Q    E  E     Q    Q    Q    Q       Q    E  E  Q    E  E     Q    Q    Q  
  Q
-------------------------|----------------------|------------------------|----------------------|
--2---------4g5----5--2--|--L-------------------|--2----0--2--L----5--2--|--L-------------------|
--2----2-----------------|----------------------|--1---------------------|----------------------|
--2----------------------|----------------------|--2---------------------|----------------------|
--0----------------0-----|-------0----2----0----|--4---------------4-----|--L----4----4----5----|
-------------------------|----------------------|------------------------|----------------------|


  Bm                                              Esus4                     E
  ^
  Q    E  E  Q    E  E     Q    Q    Q    Q       Q     Q    Q    E   E     Q    Q    Q  
  Q
------------------------|----------------------|-------------------------|----------------------|
--3----3--3--3----3--3--|--L----3----3----3----|------------------2h--3--|--L----L----2----L----|
--4---------------------|----------------------|--1-----2----------------|----------------------|
--4---------------------|----------------------|--2-----2----x----2---L--|--2----x----2----L----|
--2---------------2-----|-----------------2----|-------------x-----------|-------x--------------|
------------------------|----------------------|-------------x-----------|-------x--------------|


  F#m                                              C#m
  ^                                                ^
  Q    Q      Q    E  E     Q    Q    Q    Q       Q    Q      Q    E  E     Q    Q    Q 
   Q
------------4g5----5--2--|--L-------------------|-------------------------|----------------------|
--2----2-----------------|----------------------|--2----2----4g5----5--2--|--L-------------------|
--2----------------------|----------------------|--1----------------------|----------------------|
--4----------------------|----------------------|--2----------------------|----------------------|
--4----------------------|----------------------|--4----------------4-----|--L----4----4----5----|
--2----------------2-----|--L----2----2----0----|-------------------------|----------------------|


  D                                                Esus4                   E
  ^
  Q    E   E  Q    E  E     Q    Q    Q    Q       Q     Q    Q    Q       Q    Q    H
-------------------------|----------------------|-----------------------|---------------------|
--3----2h--3--3----3--3--|--L----3----3----3----|--3-----2----0----2----|--3---------2--------|
--2----------------------|----------------------|-----------------------|---------------------|
--0----------------0-----|--L--------------0----|--2---------------2----|--2----x----2--------|
-------------------------|--x-------------------|-----------------------|-------x-------------|
-------------------------|--x-------------------|-----------------------|-------x-------------|


  F#m                                              C#m
  ^                                                ^
  Q    Q      Q    E  E     Q    Q    Q    Q       E   E  E  E  Q    E  E     Q    Q    Q
   Q
------------4g5----5--2--|--L-------------------|--------------------------|----------------------|
--2----2-----------------|----------------------|--2---2--2--2--5----5--2--|--L-------------------|
--2----------------------|----------------------|--1-----------------------|----------------------|
--4----------------------|----------------------|--2-----------------------|----------------------|
--4----------------------|----------------------|--4-----------------4-----|--L----4----4----5----|
--2----------------2-----|--L----2----2----0----|--------------------------|----------------------|


  D                                                Esus4                   E
  ^
  Q    E   E  Q    E  E     Q    Q    Q    Q       Q     Q    Q    Q       Q    Q    H
-------------------------|----------------------|-----------------------|---------------------|
--3----2h--3--3----3--3--|--L----3----3----3----|--3-----2----0----2----|--3---------2--------|
--2----------------------|----------------------|-----------------------|---------------------|
--0----------------0-----|--L--------------0----|--2---------------2----|--2----x----2--------|
-------------------------|--x-------------------|-----------------------|-------x-------------|
-------------------------|--x-------------------|-----------------------|-------x-------------|


  Bm7                                             A/C#                   E
  Q    Q    Q    E   E     Q    Q    Q    Q       Q    Q    Q    Q       Q    Q    Q    Q
--2--------------4h--5--|--L----5----4----2----|-----------------0----|----------------------|
--3---------3-----------|----------------------|--2----0----2---------|--2---------0---------|
--2--------------2------|--L----2----1---------|----------------------|----------------------|
--4----x----4-----------|-----------------4----|-----------------2----|--2----x----2----2----|
--2----x---------2------|--L---------2---------|--4----2----4----4----|--4----x----2---------|
-------x----------------|----------------------|----------------------|-------x--------------|


  Bm7                                           A/C#                   E
  Q    Q    Q    Q       Q    Q    Q    Q       Q    Q    Q    Q       Q    Q    Q    Q
--2---------2----5----|--L----5----4----2----|-----------------0----|----------------------|
--3---------3---------|----------------------|--2----0----2---------|--2---------0---------|
--2---------2----2----|--L----2----1---------|----------------------|----------------------|
--4----x----4---------|-----------------4----|-----------------2----|--2----x----2----2----|
--2----x----2----2----|--L---------2---------|--4----2----4----4----|--4----x----2---------|
-------x--------------|----------------------|----------------------|-------x--------------|


  Bm7                                             A/C#                   E
  Q    Q    Q    E   E     Q    Q    Q    Q       Q    Q    Q    Q       Q    Q    H
--2---------2----4h--5--|--L----5----4----2----|-----------------0----|---------------------|
--3---------3-----------|----------------------|--2----0----2---------|--2---------0--------|
--2---------2----2------|--L----2----1---------|----------------------|---------------------|
--4----x----4-----------|-----------------4----|-----------------2----|--2----x----2--------|
--2----x----2----2------|--L---------2---------|--4----2----4----4----|--4----x----2--------|
-------x----------------|----------------------|----------------------|-------x-------------|


  D                                             E                      A
  Q     Q    Q    Q       Q    H        Q       Q    Q    Q    Q       H        H
-------------0---------|---------------------|-----------------0----|--------------------|
--2p----0---------2----|--L----0--------L----|--2----0----2---------|--2--------0--------|
-----------------------|---------------------|----------------------|--------------------|
-------------2---------|---------------------|--2--------------2----|--2--------2--------|
--4-----2---------4----|--L----2--------L----|--4----2----4---------|--0-----------------|
-----------------------|---------------------|----------------------|--------------------|


  D                                           E
  ^                                   TH             TH     TH     TH        TH         TH
  H.           Q       H.             Q       Q      Q      Q      Q         H          H
--2------------2----|--L-------------------|---------------------<>0----|------------------------|
--3------------3----|--L------------<>2----|--L----<>0----<>2-----------|--<>2--------<>0--------|
--2------------2----|--L-------------------|----------------------------|------------------------|
--0-----------------|----------------------|----------------------------|------------------------|
--------------------|----------------------|----------------------------|------------------------|
--------------------|----------------------|----------------------------|------------------------|


  D                                            E
  H        Q    Q       Q    Q    Q    Q       Q    Q    Q    Q       Q    Q    H
--2--------2----2----|--L----2----2----L----|----------------------|---------------------|
--3--------3----3----|--L----3----3----L----|----------------------|---------------------|
--2--------2----2----|--L----2----2----L----|--6----6----6----4----|--L----6----4--------|
--0--------0----0----|-------0----0----L----|--6----6----6----4----|--L----6----4--------|
---------------------|----------------------|--7----7----7----5----|--L----7----5--------|
---------------------|----------------------|----------------------|---------------------|


  F#m                                            C#m
  ^                                              ^
  Q    Q    Q    E  E     Q    Q    Q    Q       Q    Q    Q    E  E     Q    Q    Q    Q
------------5----5--2--|--L-------------------|-----------------------|----------------------|
--2----2---------------|----------------------|--2----2----5----5--2--|--L-------------------|
--2--------------------|----------------------|--1--------------------|----------------------|
--4--------------------|----------------------|--2--------------------|----------------------|
--4--------------------|----------------------|--4--------------4-----|--L----4----4----5----|
--2--------------2-----|--L----2----2----0----|-----------------------|----------------------|


  D                                                Esus4                   E
  ^
  Q    E   E  Q    E  E     Q    Q    Q    Q       Q     Q    Q    Q       Q    Q    H
-------------------------|----------------------|-----------------------|---------------------|
--3----2h--3--3----3--3--|--L----3----3----3----|--3-----2----0----2----|--3---------2--------|
--2----------------------|----------------------|-----------------------|---------------------|
--0----------------0-----|-----------------0----|--2---------------2----|--2----x----2--------|
-------------------------|--x-------------------|-----------------------|-------x-------------|
-------------------------|--x-------------------|-----------------------|-------x-------------|


  F#m                                            C#m
  ^                                              ^
  Q    Q    Q    E  E     Q    Q    Q    Q       E   E  E  E  Q    E  E     Q    Q    Q  
  Q
------------5----5--2--|--L-------------------|--------------------------|----------------------|
--2----2---------------|----------------------|--2---2--2--2--5----5--2--|--L-------------------|
--2--------------------|----------------------|--1-----------------------|----------------------|
--4--------------------|----------------------|--2-----------------------|----------------------|
--4--------------------|----------------------|--4-----------------4-----|--L----4----4----5----|
--2--------------2-----|--L----2----2----0----|--------------------------|----------------------|


  D                                                Esus4                   E
  ^
  Q    E   E  Q    E  E     Q    Q    Q    Q       Q     Q    Q    Q       Q    Q    H
-------------------------|----------------------|-----------------------|---------------------|
--3----2h--3--3----3--3--|--L----3----3----3----|--3-----2----0----2----|--3---------2--------|
--2----------------------|----------------------|-----------------------|---------------------|
--0----------------0-----|--L--------------0----|--2---------------2----|--2----x----2--------|
-------------------------|--x-------------------|-----------------------|-------x-------------|
-------------------------|--x-------------------|-----------------------|-------x-------------|


  Bm                                            A/C#                   E
  Q    Q    Q    Q       Q    Q    Q    Q       Q    Q    Q    Q       Q    Q    Q    Q
--2----2---------5----|-------5----4----2----|-----------------0----|----------------------|
--3---------3---------|--3-------------------|--2----0----2---------|--2---------0---------|
--2----2---------2----|--2----2----1----2----|--2----2----2---------|----------------------|
--4---------0---------|-----------------4----|--2----2----2----2----|--2-------------------|
--2----2----2----2----|--2----2----2----2----|--4----2----4----4----|--4---------2---------|
----------------------|----------------------|----------------------|--0----0----0----0----|


  Bm                                            A/C#                   E
  Q    Q    Q    Q       Q    Q    Q    Q       Q    Q    Q    Q       Q    Q    Q    Q
--2----2----2----5----|-------5----4----2----|-----------------0----|----------------------|
--3---------3---------|--3-------------------|--2----0----2---------|--2---------0---------|
--2----2----2----2----|--2----2----1---------|--2----2----2---------|----------------------|
--4---------4---------|-----------------4----|--2----2----2----2----|--2--------------2----|
--2----2----2----2----|--2----2----2----2----|--4----2----4----4----|--4---------2---------|
----------------------|----------------------|----------------------|--0----0----0----0----|


  Bm                                            A/C#                   E
  Q    Q    Q    Q       Q    Q    Q    Q       Q    Q    Q    Q       Q    Q    Q    Q
--2----2---------5----|-------5----4----2----|-----------------0----|----------------------|
--3---------3---------|--3-------------------|--2----0----2---------|--2----L----0----L----|
--2----2---------2----|--2----2----1---------|--2----2----2---------|----------------------|
--4---------0---------|-----------------4----|--2----2----2----2----|--2----2----2----2----|
--2----2----2----2----|--2----2----2----2----|--4----2----4----4----|--4---------2---------|
----------------------|----------------------|----------------------|----------------------|


  D                                              E
  Q     Q    Q    Q       Q    Q    Q    Q       Q    Q    Q    Q       Q    Q    Q    E 
 E
-------------0---------|----------------------|-----------------0----|-----------------------|
--2p----0---------2----|--L----0--------------|--2----0----2---------|--2---------0----------|
--2-----2----2----2----|--2----2----2----2----|----------------------|-----------------2-----|
--0-----0----0----0----|--0----0----0----0----|--2----2----2----2----|--2----2----2----2--4--|
-----------------------|----------------------|--4----2----4---------|--4---------2----------|
-----------------------|----------------------|--0----0----0----0----|--0----0----0----0-----|


  Bm                                            A                      E
  Q    Q    Q    Q       Q    Q    Q    Q       Q    Q    Q    Q       Q    Q    Q    Q
--2----2----2----2----|--2----2---------5----|--L-------------------|-------4---------5----|
--3----3----3----3----|--3----3--------------|----------------------|----------------------|
--4-------------------|-----------------2----|--L----2----2----2----|-------1---------2----|
----------------------|----------------------|-------2----2----2----|-------2---------2----|
--2----2----2----2----|--2----2----2----2----|--0----0----0----0----|----------------------|
----------------------|----------------------|----------------------|--0----0----0----0----|


  Bm                                            A                      E
  Q    Q    Q    Q       Q    Q    Q    Q       Q    Q    Q    Q       Q    Q    Q    Q
--L----2----2----2----|--2----2---------5----|--L-------------------|-------0--------------|
-------3----3----3----|--3----3--------------|----------------------|-----------------3----|
--L-------------------|-----------------2----|-------2----2----2----|----------------------|
----------------------|----------------------|--L----2----2----2----|-------2---------0----|
--2----2----2----2----|--2----2----2----2----|--0----0----0----0----|-------2---------2----|
----------------------|----------------------|----------------------|--0----0----0----0----|


  Bm                                            A/C#                   E
  Q    Q    Q    Q       Q    Q    Q    Q       Q    Q    Q    Q       Q    Q    Q    Q
-------2----2----5----|--L----5----4----2----|-----------------0----|----------------------|
--L----3----3---------|----------------------|--2----0----2---------|--2----L----0----L----|
----------------------|-------2----1---------|--2----2----2---------|----------------------|
--L-------------------|-----------------4----|--2----2----2----2----|--2----2----2----2----|
--2----2----2----2----|--2----2----2----2----|--4----2----4----4----|--4---------2---------|
----------------------|----------------------|----------------------|----------------------|


  D                                              Esus4                   E
  Q     Q    Q    Q       Q    Q    Q    Q       Q     Q    Q    Q       H        H
-------------0---------|----------------------|------------------0----|--------------------|
--2p----0---------2----|--L----0--------------|--2p----0----2---------|--2--------0--------|
--2-----2----2----2----|--2----2----2----2----|-----------------------|--------------------|
--0-----0----0----0----|--0----0----0----0----|--2-----2----2----2----|--------------------|
-----------------------|----------------------|--4-----2----4---------|--4--------2--------|
-----------------------|----------------------|--0-----0----0----0----|--------------------|


  D                                            E
  H        Q    Q       Q    Q    Q    Q       Q    Q    Q    Q       Q    Q    E  Q.
---------------------|----------------------|-----------------0----|----------------------|
---------------------|----------------------|--2----0----2----2----|-------2----L--1------|
--2-------------2----|--L---------2----2----|--1--------------1----|--L----1----L--0------|
--4--------x----4----|--L----x----4----4----|--2--------------2----|--L----2----L--1------|
--5--------x----5----|--L----x----5----5----|----------------------|----------------------|
-----------x---------|-------x--------------|----------------------|----------------------|


  D6                                           E
                                               TH     TH     TH     TH        TH         TH
  H        Q    Q       Q    H.                Q      Q      Q      Q         H          H
---------------------|--------------------|-----------------------<>0----|------------------------|
---------------------|--------------------|--<>2----<>0----<>2-----------|--<>0-------------------|
--4-------------4----|--L----4------------|------------------------------|-------------<>2--------|
--4--------x----4----|--L----4------------|------------------------------|------------------------|
--5--------x----5----|--L----5------------|------------------------------|------------------------|
-----------x---------|--------------------|------------------------------|------------------------|


            Ab
            ^
  H         H            W
-----------(0)--------|--L----------------||
-----------(2)--------|--L----------------||
--L--------(2)--------|--L----------------||
-----------(2)--------|--L----------------||
-----------(0)--------|--L----------------||
----------------------|--L----------------||




Duration Legend
---------------
W - whole
H - half
Q - quarter
E - 8th
S - 16th
T - 32nd
X - 64th
. - note dotted
|-n-|  - n-tuplets


Tablature Legend
----------------
L - tied note
x - dead note
g - grace note
(n) - ghost note
> - accentuded note
NH - natural harmonic
AH - artificial harmonic
TH - tapped harmonic
SH - semi harmonic
PH - pitch harmonic
h - hammer on
p - pull off
b - bend
br - bendRelease
pb - preBend
pbr - preBendRelease
brb - bendReleaseBend
\n/ - tremolo bar dip
\n - tremolo bar dive
-/n - tremolo bar Release up
/n\ - tremolo bar inverted dip
/n - tremolo bar return
-\n - tremolo bar Release down
S - shift slide
s - legato slide
/ -  slide into from below or out of upwards
\ -  slide into from above or out of downwards
~ - vibrato
W - wide vibrato
tr - trill
TP - tremolo picking
T - tapping
S - slap
P - pop
< - fade in
^ - brush up
v - brush down
Suggest correction
Give kudos to tab author, rate the tab!
1 2 3 4 5
There is a new version of this tab from today which you may like more. Go check it out:
comments
print report bad tab
guest
You may want to rate the tab now too:
select rating
Wanna post a correction for this tab? Suggest correction