Oops, an error
Loading. Please wait.

Sunshine chords

version 1
version 1

Whole song

by Keane
6,204 views 1 this week
2 commentsread comments
1 2 3 4 5
x 3
add to favorites
×
Save as Personal and add changes to this tab that will be seen only by you. Learn more ›
×
You can save this tab as Personal to edit and correct it or add notes. All changes will be seen only by you. Learn more »
launch autoscroll
font size
0
reset
transpose
0
reset
display chords
guitar tuner
edit
Autoscroll
slow
fast
+/-
esc
set tempo
stop
Strumming
There is no strumming pattern for this song yet. and get +5 IQ
Artist: Keane
Song: Sunshine
Tabbed by: Carlos ramirez
Tuning: standard with CAPO on 2nd fret

INTRO:
2nd fret
e|-||--5---5--5--5------|
B|-||--6---6--6--6------|
G|-||--7---6--5--6------| (2)
D|-||--0---0--0--0------|
A|-||-------------------|
E|-||-------------------|


VERSO:

2nd fret
e|-||----5-------------5----------------5---------5---------------------|
B|-||----6-------------6----------------6---------6---------------------|
G|-||----7-------------6----------------7---------6---------------------|
D|-||----0-------------0----------------0---------0---------------------|
A|-||-------------------------------------------------------------------|
E|-||-------------------------------------------------------------------|
      I hold you in my arms    a little animal


2nd fret
e|-||------5---------------5-----------------5-------3------------------|
B|-||------6---------------6-----------------6-------3------------------|
G|-||------7---------------6-----------------5-------4------------------|
D|-||------0---------------0-----------------0-------5------------------|
A|-||------------------------------------------------5------------------|
E|-||------------------------------------------------3------------------|
      and only some dumb idiot would let you go

2nd fret
e|-||-----3----------------0--------3--------------------3--------------|
B|-||-----3----------------1--------3--------------------4--------------|
G|-||-----3----------------0--------3--------------------5--------------|
D|-||-----5----------------2--------5--------------------6--------------|
A|-||-----5----------------3--------5-----------------------------------|
E|-||-----3-------------------------3-----------------------------------|
      but if I'm one thing    then that's the one thing


CORO:
2nd fret
e|-||------------0--------0------------------0---------------0----------|
B|-||------------1--------0------------------1---------------3----------|
G|-||------------0--------0------------------2---------------5----------|
D|-||------------2--------2------------------2---------------6----------|
A|-||------------3--------3------------------0--------------------------|
E|-||-------------------------------------------------------------------|
       I should know            can anybody find their home
                out of everyone can anybody find their home


   verse, chorus(2) , solo( Gm C Gm G#maj7) chorus......
Suggest correction
Creating personal tab
Creating personal tab
You can edit any tab online and save it as your Personal.

You can edit, replace or remove any tab part or add personal notes – all changes will be seen only by you.

Personal tabs can be accessed anytime from any device, even offline.
Learn more »
Give kudos to tab author, rate the tab!
1 2 3 4 5
comments
print report bad tab
2 comments total.
0 reply
rocker007 74 Dec 05, 2006 10:38 AM

nice

0 reply
www.dumbass 10 Jul 29, 2007 10:02 AM

awsome too bad the solo aint there tho :/

guest
You may want to rate the tab now too:
select rating
Wanna post a correction for this tab? Suggest correction