Oops, an error
Loading. Please wait.

Your Eyes Open bass

version 1
version 1

Whole song

Interactive

by Keane
172 views 1 this week
no commentswrite comment
1 2 3 4 5
x 4
add to favorites
×
Save as Personal and add changes to this tab that will be seen only by you. Learn more ›
×
You can save this tab as Personal to edit and correct it or add notes. All changes will be seen only by you. Learn more »
launch autoscroll
font size
0
reset
guitar tuner
edit
Autoscroll
slow
fast
+/-
esc
set tempo
stop
Author
Difficulty
--------------------------------------------------------------------------
                                          Artist - Keane
                                         ****************
                                       Song - Your Eyes Open   
                                      ***********************
                                      Album - Hopes And Fears   
                                     *************************
                                        Tabbed By - Ayreon77
                                       **********************
--------------------------------------------------------------------------
Tuning = Standard



00:16
INTRO
******
G|------7-9-|------7-9-|------------|------------|----------|----------|-------9-10-|-------9-10-|
D|----9-----|----9-----|-------9-10-|-------9-10-|------5-7-|------5-7-|----10------|----10------|
A|-7--------|-7--------|----10------|----10------|----7-----|----7-----|-8----------|-8----------|
E|----------|----------|-8----------|-8----------|-5--------|-5--------|------------|------------|

-------------------------
00:31
VERSE 1
********
Well it's a lonely road that you have chosen      Morning comes and you don't want to know me anymore
G|------7-9-|------7-9-|------------|------------|----------|----------|-------9-10-|-------9-10-|
D|----9-----|----9-----|-------9-10-|-------9-10-|------5-7-|------5-7-|----10------|----10------|
A|-7--------|-7--------|----10------|----10------|----7-----|----7-----|-8----------|-8----------|
E|----------|----------|-8----------|-8----------|-5--------|-5--------|------------|------------|

And it's a long time since your heart was frozen  Morning comes and you don't want to know me anymore
G|------7-9-|------7-9-|------------|------------|----------|----------|-------9-10-|-------9-10-|
D|----9-----|----9-----|-------9-10-|-------9-10-|------5-7-|------5-7-|----10------|----10------|
A|-7--------|-7--------|----10------|----10------|----7-----|----7-----|-8----------|-8----------|
E|----------|----------|-8----------|-8----------|-5--------|-5--------|------------|------------|

-------------------------
01:01
CHORUS
*******
  For a  moment your  eyes open and you know      All   the   things I ever wanted you to know
G|------------|------------|----------|----------|------------|------------|----------|----------|
D|-------9-10-|-------9-10-|------4-5-|------7-9-|-------9-10-|-------9-10-|------4-5-|------7-9-|
A|----10------|----10------|----5-----|----9-----|----10------|----10------|----5-----|----9-----|
E|-8----------|-8----------|-3--------|-7--------|-8----------|-8----------|-3--------|-7--------|

  I   don't    know you and I don't    want to    Till   the   moment your eyes open and you know
G|------------|------------|----------|----------|------------|------------|----------|----------|
D|-------9-10-|-------9-10-|------4-5-|------7-9-|-------9-10-|-------9-10-|------4-5-|------7-9-|
A|----10------|----10------|----5-----|----9-----|----10------|----10------|----5-----|----9-----|
E|-8----------|-8----------|-3--------|-7--------|-8----------|-8----------|-3--------|-7--------|

-------------------------
01:31
VERSE 2
********
That it's a lonely place that you have run to     Morning comes and you don't want to know me anymore
G|------7-9-|------7-9-|------------|------------|----------|----------|-------9-10-|-------9-10-|
D|----9-----|----9-----|-------9-10-|-------9-10-|------5-7-|------5-7-|----10------|----10------|
A|-7--------|-7--------|----10------|----10------|----7-----|----7-----|-8----------|-8----------|
E|----------|----------|-8----------|-8----------|-5--------|-5--------|------------|------------|

And it's a lonely end that you will come to       Morning comes and you don't want to know me anymore
G|------7-9-|------7-9-|------------|------------|----------|----------|-------9-10-|-------9-10-|
D|----9-----|----9-----|-------9-10-|-------9-10-|------5-7-|------5-7-|----10------|----10------|
A|-7--------|-7--------|----10------|----10------|----7-----|----7-----|-8----------|-8----------|
E|----------|----------|-8----------|-8----------|-5--------|-5--------|------------|------------|

-------------------------
02:00
CHORUS
*******
  For a  moment your  eyes open and you know      All   the   things I ever wanted you to know
G|------------|------------|----------|----------|------------|------------|----------|----------|
D|-------9-10-|-------9-10-|------4-5-|------7-9-|-------9-10-|-------9-10-|------4-5-|------7-9-|
A|----10------|----10------|----5-----|----9-----|----10------|----10------|----5-----|----9-----|
E|-8----------|-8----------|-3--------|-7--------|-8----------|-8----------|-3--------|-7--------|

  I   don't    know you and I don't    want to    Till   the   moment your eyes open and you know
G|------------|------------|----------|----------|------------|------------|----------|----------|
D|-------9-10-|-------9-10-|------4-5-|------7-9-|-------9-10-|-------9-10-|------4-5-|------7-9-|
A|----10------|----10------|----5-----|----9-----|----10------|----10------|----5-----|----9-----|
E|-8----------|-8----------|-3--------|-7--------|-8----------|-8----------|-3--------|-7--------|

-------------------------
02:30
SYNTH
******
G|-------9-10-|-------9-10-|----------|----------|----------|----------|----------|----------|
D|----10------|----10------|------5-7-|------5-7-|------5-7-|------5-7-|------5-7-|------7-9-|
A|-8----------|-8----------|----7-----|----7-----|----7-----|----7-----|----7-----|----9-----|
E|------------|------------|-5--------|-5--------|-3--------|-3--------|-1--------|-7--------|

-------------------------
02:44
CHORUS
*******
  For a  moment your  eyes open and you know      All   the   things I ever wanted you to know
G|------------|------------|----------|----------|------------|------------|----------|----------|
D|-------9-10-|-------9-10-|------4-5-|------7-9-|-------9-10-|-------9-10-|------4-5-|------7-9-|
A|----10------|----10------|----5-----|----9-----|----10------|----10------|----5-----|----9-----|
E|-8----------|-8----------|-3--------|-7--------|-8----------|-8----------|-3--------|-7--------|

  I   don't    know you and I don't    want to    Till   the   moment your eyes open and you know
G|------------|------------|----------|----------|------------|------------|----------|----------|
D|-------9-10-|-------9-10-|------4-5-|------7-9-|-------9-10-|-------9-10-|------4-5-|------7-9-|
A|----10------|----10------|----5-----|----9-----|----10------|----10------|----5-----|----9-----|
E|-8----------|-8----------|-3--------|-7--------|-8----------|-8----------|-3--------|-7--------|


ENJOY............

            
            
Suggest correction
Creating personal tab
Creating personal tab
You can edit any tab online and save it as your Personal.

You can edit, replace or remove any tab part or add personal notes – all changes will be seen only by you.

Personal tabs can be accessed anytime from any device, even offline.
Learn more »
comments
print report bad tab
guest
You may want to rate the tab now too:
select rating
Wanna post a correction for this tab? Suggest correction