Oops, an error
Loading. Please wait.

Charon Tab

18,131 views 156 this week
no commentswrite comment
1 2 3 4 5
excellent!
x 12
add to favorites
launch autoscroll
font size
0
reset
how to read this tab
guitar tuner
Tab Pro tools
  • play this tab
  • loop segment
  • change instrument
  • show fretboard
  • metronome
×
Best way to learn
"Charon"
Autoscroll
slow
fast
+/-
esc
set tempo
stop
Contributor
Capo
5th fret
-------------------------------------------------------------------------------
                             Charon – Keaton Henson
-------------------------------------------------------------------------------
Tabbed by: Neil Wicker
E-mail: wicker101@hotmail.co.uk

Tuning: Standard

Capo 5

hopefully this is easy enough to follow. Once you have the picking pattern down it's 
just a case of putting the chords over it really...


Intro: (played twice, only play the open E at the start of the Bm first time round, then 
just play another 2 on the A string for the rest of the song)

  Bm
e|-----------------------------------------------------------------|
B|-------3-------3-------3-------3-------3-------3-------3-------3-|
G|---0-------0-------0-------0-------0-------0-------0-------0-----|
D|-----4-------4-------4-------4-------4-------4-------4-------4---|
A|-2---------------2-------2-------2-------2-------2-------0-------|
E|---------0-------------------------------------------------------|

  G                                                     G/F#
e|------------------------------------------------------------------|
B|-------3-------3-------3-------3-------3-------3-------3-------3--|
G|---0-------0-------0-------0-------0-------0-------0-------0------|
D|-----0-------0-------0-------0-------0-------0-------0-------0----|
A|------------------------------------------------------------------|
E|-3-------3-------3-------3-------3-------3-------3-------2--------|

  Em
e|------------------------------------------------------------------|
B|-------0-------0-------0-------0-------0-------0-------0--------0-|
G|---0-------0-------0-------0-------0-------0-------0--------0-----|
D|-----2-------2-------2-------2-------2-------2-------2--------2---|
A|------------------------------------------------------------------|
E|-0-------0-------0-------0-------0-------0-------0-------0h2------|

  G                              A
e|------------------------------------------------------------------|
B|-------3-------3-------3-------3-------2-------2-------2-------2--|
G|---0-------0-------0-------0-------2-------2-------2-------2------|
D|-----0-------0-------0-------0-------2-------2-------2-------2----|
A|---------------------------------0-------0-------0-------0--------|
E|-3-------3-------3-------3----------------------------------------|

  (second time round only)
  A
e|----------------------------------|
B|-------2-------2-------2-------2--|
G|---2-------2-------2-------2------|
D|-----2-------2-------2-------2----|
A|-0-------0-------0-------0--------|
E|----------------------------------|

Verse:  (same as intro)

And It seems as though
I'm on my own
And time transcends, oh!

And it seems I speak
like waters leak
And I'm losing friends, oh!


End of Verse:

  Em
e|------------------------------------------------------------------|
B|-------0-------0-------0-------0-------0-------0-------0--------0-|
G|---0-------0-------0-------0-------0-------0-------0--------0-----|
D|-----2-------2-------2-------2-------2-------2-------2--------2---|
A|------------------------------------------------------------------|
E|-0-------0-------0-------0-------0-------0-------0-------0h2------|

  G                              A
e|------------------------------------------------------------------|
B|-------3-------3-------3-------3-------2-------2-------2-------2--|
G|---0-------0-------0-------0-------2-------2-------2-------2------|
D|-----0-------0-------0-------0-------2-------2-------2-------2----|
A|---------------------------------0-------0-------0-------0--------|
E|-3-------3-------3-------3----------------------------------------|

Chorus:

  Bm                                  G                  G/F#
e|------------------|-----------------|-----------------|-----------------|
B|--------3-------3-|-------3-------3-|-------3-------3-|-------3-------3-|
G|----0-------0-----|---0-------0-----|---0-------0-----|---0-------0-----|
D|------4-------4---|-----4-------4---|-----0-------0---|-----0-------0---|
A|--2-------2-------|-0-------0-------|-----------------|-----------------|
E|------------------|-----------------|-3-------3-------|-2-------2-------|

  Em
e|------------------------------------------------------------------|
B|-------0-------0-------0-------0-------0-------0-------0--------0-|
G|---0-------0-------0-------0-------0-------0-------0--------0-----|
D|-----2-------2-------2-------2-------2-------2-------2--------2---|   x2
A|------------------------------------------------------------------|
E|-0-------0-------0-------0-------0-------0-------0-------0h2------|

There’ll be coins on my eyes

  G
e|---------------------------------|
B|-------3-------3-------3-------3-|
G|---0-------0-------0-------0-----|
D|-----0-------0-------0-------0---|
A|---------------------------------|
E|-3-------3-------3-------3-------|

To pay Charon

(intro again)

Verse (same)
And I don't feel well
oh, couldn't you tell,
from the way I touch my face?

My thoughts are low
And I cannot grow
In this small space, oh

Chorus(same)
End of chorus:
  Em
e|------------------------------------------------------------------|
B|-------0-------0-------0-------0-------0-------0-------0--------0-|
G|---0-------0-------0-------0-------0-------0-------0--------0-----|
D|-----2-------2-------2-------2-------2-------2-------2--------2---|
A|------------------------------------------------------------------|
E|-0-------0-------0-------0-------0-------0-------0-------0h2------|

  G                              A
e|------------------------------------------------------------------|
B|-------3-------3-------3-------3-------2-------2-------2-------2--|
G|---0-------0-------0-------0-------2-------2-------2-------2------|
D|-----0-------0-------0-------0-------2-------2-------2-------2----|
A|---------------------------------0-------0-------0-------0--------|
E|-3-------3-------3-------3----------------------------------------|

Ending:

  Em
e|----------------------------------|
B|-------0-------0-------0--------0-|
G|---0-------0-------0--------0-----|
D|-----2-------2-------2--------2---|
A|----------------------------------|
E|-0-------0-------0-------0h2------|

  G
e|----------------------------------|
B|-------3-------3-------3-------3--|
G|---0-------0-------0-------0------|
D|-----0-------0-------0-------0----|
A|----------------------------------|
E|-3-------3-------3-------3--------|

I ain’t no… (repeat till end)


************************************

| /   slide up
| \   slide down
| h   hammer-on
| p   pull-off
| ~   vibrato
| +   harmonic
| x   Mute note
| b   Bend
| pb  Pre-bend
| br  Bend release
| pbr Pre-bend release
| brb Bend release bend

************************************
comments
print report bad tab
I want to post or [tab]
guest
You may want to rate the tab now too:
select rating
Please do not post tabs as comments. Select "correction" instead!