Oops, an error
Loading. Please wait.

Dont Swim Tab

121 views 21 this week
no commentswrite comment
1 2 3 4 5
1 last vote to show rating
add to favorites
launch autoscroll
font size
0
reset
how to read this tab
guitar tuner
Autoscroll
slow
fast
+/-
esc
set tempo
stop
Help us to improve Ultimate-Guitar.com Take our survey!
×
[Intro]
e|---------------------------------------------------------------------------|
B|---1-----------------------------------------------------------------------|
G|------X16------------------------------------------------------------------|
D|---------------------------------------------------------------------------|
A|-3-------------------------------------------------------------------------|
E|---------------------------------------------------------------------------|

[Verse]
Where've you been, my love?
e|--------------1-----1-----0-----0-----------8------------------------------|
B|----1---------------------------------8------------------------------------|
G|-------X8--2-----2-----0-----0-----------------X4--------------------------| X2
D|---------------------------------------------------------------------------|
A|-3---------------------------------8-----8---------------------------------|
E|---------------------------------------------------------------------------|

And promising to never let me in.

e|----1-----1-----0-----0-----------8----------------------------------------|
B|----------------------------8----------------------------------------------|
G|-2-----2-----0-----0-----------------X4------------------------------------|
D|---------------------------------------------------------------------------|
A|-------------------------8-----8-------------------------------------------|
E|---------------------------------------------------------------------------|

[Chorus]
Don't swim.
e|------------------------------------------------0-----0-----------8--------|
B|------------------------8-----------------------------------8--------------|
G|---9--X8-----10--X8--------X8-----10-----10--0-----0-----------------X4----|
D|-------------------------------7------7------------------------------------|
A|---------------------------------------------------------8-----8-----------|
E|-8--------8----------8-----------------------------------------------------|

[Verse]
And I was better where...
e|--------------1-----1-----0-----0-----------8------------------------------|
B|----1---------------------------------8------------------------------------|
G|-------X8--2-----2-----0-----0-----------------X4--------------------------| 
D|---------------------------------------------------------------------------|
A|-3---------------------------------8-----8---------------------------------|
E|---------------------------------------------------------------------------|

And I love you, please don't go.

e|--------------1-----1-----0-----0-----------8------------------------------|
B|----1---------------------------------8------------------------------------|
G|-------X8--2-----2-----0-----0-----------------X2--------------------------| 
D|---------------------------------------------------------------------------|
A|-3---------------------------------8-----8---------------------------------|
E|---------------------------------------------------------------------------|

That I'm the one that kept you from your home.

e|----1-----1-----0-----0-----------8----------------------------------------|
B|----------------------------8----------------------------------------------|
G|-2-----2-----0-----0-----------------X4------------------------------------|
D|---------------------------------------------------------------------------|
A|-------------------------8-----8-------------------------------------------|
E|---------------------------------------------------------------------------|

[Chorus]
Don't go.
e|------------------------------------------------0-----0-----------8--------|
B|------------------------8-----------------------------------8--------------|
G|---9--X8-----10--X8--------X8-----10-----10--0-----0-----------------X4----|
D|-------------------------------7------7------------------------------------|
A|---------------------------------------------------------8-----8-----------|
E|-8--------8----------8-----------------------------------------------------|

[Bridge]
Oh, my love...
e|----3---------1---------0--------------------------------------------------|
B|-------X4--------X4--------X4-----3--X4------------------------------------|
G|-4---------2---------------------------------------------------------------| X2
D|---------------------2---------2-------------------------------------------|
A|---------------------------------------------------------------------------|
E|---------------------------------------------------------------------------|

I just don't think I can lie.

e|----------------0-----0-----0-----0-----0-----0----------------------------|
B|----3-----3----------------------------------------------------------------|
G|-------------0-----0-----2-----2-----2-----2-------------------------------|
D|-3-----3-------------------------------------------------------------------|
A|---------------------------------------------------------------------------|
E|---------------------------------------------------------------------------|

e|----------------0-----0-----0----------------------------------------------|
B|----3-----3----------------------------------------------------------------|
G|-------------0-----0-----2-----X8------------------------------------------|
D|-3-----3-------------------------------------------------------------------|
A|---------------------------------------------------------------------------|
E|---------------------------------------------------------------------------|

[Chorus]
Don't lie.
e|---------------------------------------------------------------------------|
B|------------------------8--------------------------------------------------|
G|---9--X8-----10--X8--------X8----------------------------------------------|
D|---------------------------------------------------------------------------|
A|---------------------------------------------------------------------------|
E|-8--------8----------8-----------------------------------------------------|

[Outro]
C  F  G  C  F  G  C  F  G  C
e|----1-----1-----0-----0-----------8----------------------------------------|
B|----------------------------8----------------------------------------------|
G|-2-----2-----0-----0-----------------X2------------------------------------| 
D|---------------------------------------------------------------------------|
A|-------------------------8-----8-------------------------------------------|
E|---------------------------------------------------------------------------| 
Suggest correction
Give kudos to tab author, rate the tab!
1 2 3 4 5
comments
print report bad tab
guest
You may want to rate the tab now too:
select rating
Wanna post a correction for this tab? Suggest correction