Oops, an error
Loading. Please wait.

Party Song Tab

16,679 views 87 this week
1 commentread comment
1 2 3 4 5
excellent!
x 22
add to favorites
launch autoscroll
font size
0
reset
how to read this tab
guitar tuner
Autoscroll
slow
fast
+/-
esc
set tempo
stop
Help us to improve Ultimate-Guitar.com Take our survey!
×
Author
[Intro and Verse pattern]

                                                    (intro only)
e|----------------|----------------|--------------|-----------------|
B|----------------|----------------|--------------|-----------------|
G|----------------|----------------|--------------|-----------------|
D|-----6-----6s7--|-----7-----7s6--|-----6-----6--|-----6-----6-----|
A|--7-----7-------|--9-----9-------|--7-----7-----|--7-----7--------|
E|----------------|----------------|--------------|-----------------|

e|----------------|----------------|-----------------|--------------|
B|----------------|----------------|-----------------|--------------|
G|----------------|----------------|-----------------|--------------|
D|-----6-----6s4--|-----4-----4s2--|------2-----2s1--|-----1-----1--|
A|--7-----7-------|--3-----3-------|---4-----4-------|--2-----2-----|
E|----------------|----------------|-----------------|--------------|

e|----------------------------|
B|----------------------------|
G|----------------------------|
D|----------------------------|
A|-----4-----4-----4-----4----|
E|--5-----5-----5-----5-------|

I'm sorry,
can't make your party
I'll be busy burning

And I'm afraid
I'd kill your lover
While your back was turned


e|--------------------------|---------------------------|
B|--------------------------|---------------------------|
G|--------------------------|---------------------------|
D|-----6-----6-----6-----6--|-----7-----7-----7-----7---|
A|--7-----7-----7-----7-----|--9-----9-----9-----9------|
E|--------------------------|---------------------------|

e|--------------------------|---------------------------|
B|--------------------------|---------------------------|
G|--------------------------|---------------------------|
D|-----6-----6-----6-----6--|-----4-----4-----4-----4---|
A|--7-----7-----7-----7-----|--3-----3-----3-----3------|
E|--------------------------|---------------------------|

e|--------------------------|---------------------------|
B|--------------------------|---------------------------|
G|--------------------------|---------------------------|
D|-----2-----2-----2-----2--|-----1-----1-----1-----1---|
A|--4-----4-----4-----4-----|--2-----2-----2-----2------|
E|--------------------------|---------------------------|

e|------------------------------------------------------|
B|------------------------------------------------------|
G|------------------------------------------------------|
D|------------------------------------------------------|
A|-----4-----4-----4-----4-----4-----4-------6-----6----|
E|--5-----5-----5-----5-----5-----5-----5s7-----7-------|

Ooooohhhh 

e|--------------|--------------|--------------|--------------|
B|--------------|--------------|--------------|--------------|
G|--------------|--------------|--------------|--------------| x4
D|-----2-----2--|-----1-----1--|--------------|--------------|
A|--4-----4-----|--2-----2-----|-----4-----4--|-----6-----6--|
E|--------------|--------------|--5-----5-----|--7-----7-----|

So this is where you wanted to be
and it's a goddamn shamed that you're not here with me
And I can't see your face anymore
but if I could, it wouldn't look like before
look like

(intro again)


[Verse]

The thought of your hands 
on his chest
makes my stomach itch

And I see pictures now
of the two of you
and it makes me sick

(repeat Oooohhh section)


e|--------------------------|---------------------------|
B|--------------------------|---------------------------|
G|--------------------------|---------------------------|
D|-----6-----6-----6-----6--|-----6-----6-----6-----6---|
A|--7-----7-----7-----7-----|---------------------------|
E|--------------------------|--8-----8-----8-----8------|

e|--------------------------|---------------------------|
B|--------------------------|---------------------------|
G|--------------------------|---------------------------|
D|--------------------------|---------------------------| x3
A|-----6-----6-----6-----6--|-----4-----4-----4-----4---|
E|--7-----7-----7-----7-----|--5-----5-----5-----5------|

Damn, I love you
Damn, I love you
Damn, I love you

e|--------------------------|--------------------------|
B|--------------------------|--------------------------|
G|--------------------------|--------------------------|
D|-----2-----2-----2-----2--|-----1-----1-----1-----1--|
A|--4-----4-----4-----4-----|--2-----2-----2-----2-----|
E|--------------------------|--------------------------|

e|--------------------------|--------------------------|
B|--------------------------|--------------------------|
G|--------------------------|--------------------------|
D|--------------------------|--------------------------|
A|-----4-----4-----4-----4--|-----6-----6-----6-----6--|
E|--5-----5-----5-----5-----|--7-----7-----7-----7-----|


Damn, I love
Damn, I love
Damn, I love
Damn, I love

you.


[Ending]

e|------------------|
B|------------------|
G|------------------|
D|-----6-----6------|
A|--7-----7-----7---|
E|------------------|



************************************

| s  Slide

************************************
Suggest correction
comments
print report bad tab
1 comment total.
0 reply
alexspriggs 10 wrote on June 16 2015, 03:24 pm

this is perfect, thank you so much!

guest
You may want to rate the tab now too:
select rating
Please do not post tabs as comments. Select "correction" instead!