Oops, an error
Loading. Please wait.

Teach Me Tab

10,198 views 78 this week
no commentswrite comment
1 2 3 4 5
excellent!
x 19
add to favorites
launch autoscroll
font size
0
reset
how to read this tab
guitar tuner
Autoscroll
slow
fast
+/-
esc
set tempo
stop
Help us to improve Ultimate-Guitar.com Take our survey!
×
Contributor
Difficulty
novice
My first tab ever! A simplified version of Teach Me by Keaton Henson, good for an acoustic cover.

Intro/Verse:

   Teach me...
e|-------------|-------------|-------------|-------------|
B|-------10----|-------10----|-------7-----|-------7-----|
G|----11----11-|----11----11-|----7-----7--|----7-----7--|
D|-12----------|-11----------|-9-----------|-9-----------|
A|-------------|-------------|-------------|-------------|
E|-------------|-------------|-------------|-------------|

e|-------------|-------------|-------------|-------------|
B|--------8----|---------10--|-------10----|-------10----|
G|-------------|-------------|----11----11-|----11----11-|
D|-----9-----9-|------11---11|-12----------|-12----------|
A|-10----------|-10/12-------|-------------|-------------|
E|-------------|-------------|-------------|-------------|

Chorus:

         Ooooo...
e|-------------|-------------|-------------|-------------|
B|--------8----|------7h8p7--|-------7-----|-------5-----|
G|-------------|-------------|----7-----7--|----6-----6--|
D|-----9-----9-|---7---------|-9-----------|-7-----------|
A|-10----------|-9-----------|-------------|-------------|
E|-------------|-------------|-------------|-------------|

          
e|-------------|-------------|
B|--------8----|---------10--|
G|-------------|-------------|
D|-----9-----9-|------11-----|
A|-10----------|-10/12-------|
E|-------------|-------------|


Bridge:

          I      never...
e|-------------|-------------|-------------|-------------|
B|--------8----|------7h8p7--|-------7-----|-------5-----|
G|-------------|-------------|----7-----7--|----6-----6--|
D|-----9-----9-|---8---------|-9-----------|-7-----------|
A|-10----------|-9-----------|-------------|-------------|
E|-------------|-------------|-------------|-------------|
comments
print report bad tab
I want to post or [tab]
guest
You may want to rate the tab now too:
select rating
Please do not post tabs as comments. Select "correction" instead!