Oops, an error
Loading. Please wait.

Teach Me Tab

version 2
version 2

Whole song

55 views 3 this week
no commentswrite comment
1 2 3 4 5
3 more votes to show rating
add to favorites
launch autoscroll
font size
0
reset
how to read this tab
guitar tuner
Autoscroll
slow
fast
+/-
esc
set tempo
stop
Help us to improve Ultimate-Guitar.com Take our survey!
×
Author
Difficulty
About this tab version
Full version of the song. Was this info helpful? Yes No
[Intro]

e|----2--5--2-----2--5--2--------2-----------2-----------3-------------------|
B|-3-----------2-----------0--3-----3--0--3-----3-----0----------------------|
G|-------------------------------------------------0--------0----------------|
D|---------------------------------------------------------------------------|
A|---------------------------------------------------------------------------|
E|---------------------------------------------------------------------------|

e|---------5--2-----2--5--2-----2--5--2--------------------------------------|
B|------2--------3-----------3-----------------------------------------------|
G|-0h2-----------------------------------------------------------------------|
D|---------------------------------------------------------------------------|
A|---------------------------------------------------------------------------|
E|---------------------------------------------------------------------------|


[Verse 1]

Teach me how to love you like I wrote.

e|----2--5--2-----2--5--2--------2--------------2-----------3----------------|
B|-3-----------2-----------0--3-----3-----0--3-----3-----0-------------------|
G|-------------------------------------2-------------0---------0-------------|
D|---------------------------------------------------------------------------|
A|---------------------------------------------------------------------------|
E|---------------------------------------------------------------------------|

e|-------5--2-----2--5--2-----2--5--2----------------------------------------|
B|----2--------3-----------3-------------------------------------------------|
G|-2-------------------------------------------------------------------------|
D|---------------------------------------------------------------------------|
A|---------------------------------------------------------------------------|
E|---------------------------------------------------------------------------|(x3) 


[Chorus]

e|-------3-----------2h3r2---------------------------------------------------|
B|----0----------------------------------------------------------------------|
G|-0--------0-----4------------2--4--2---------------------------------------|
D|-------------4------------4-----------------4------------------------------|
A|--------------------------------------0--4-----4---------------------------|
E|---------------------------------------------------------------------------|(x2)

e|-------3-------------5-----------------------------------------------------|
B|----0-------------2--------------------------------------------------------|
G|-0--------0--0h2-----------------------------------------------------------|
D|---------------------------------------------------------------------------|
A|---------------------------------------------------------------------------|
E|---------------------------------------------------------------------------|


[Verse 2]

By all means, give me lessons in my ways.

e|----2--5--2-----2--5--2--------2--------------2-----------3----------------|
B|-3-----------2-----------0--3-----3-----0--3-----3-----0-------------------|
G|-------------------------------------2-------------0---------0-------------|
D|---------------------------------------------------------------------------|
A|---------------------------------------------------------------------------|
E|---------------------------------------------------------------------------|

e|-------5--2-----2--5--2-----2--5--2----------------------------------------|
B|----2--------3-----------3-------------------------------------------------|
G|-2-------------------------------------------------------------------------|
D|---------------------------------------------------------------------------|
A|---------------------------------------------------------------------------|
E|---------------------------------------------------------------------------|(x3)


[Chorus]

e|-------3-----------2h3r2---------------------------------------------------|
B|----0----------------------------------------------------------------------|
G|-0--------0-----4------------2--4--2---------------------------------------|
D|-------------4------------4-----------------4------------------------------|
A|--------------------------------------0--4-----4---------------------------|
E|---------------------------------------------------------------------------|(x2)

And I'll never love you enough, my love.

e|-------3-----------2-------------------------------------------------------|
B|----0----------------------------------------------------------------------|
G|-0--------0-----4-----4-------2--4--2--------------------------------------|
D|-------------4------------4-----------------4------------------------------|
A|--------------------------------------0--4-----4---------------------------|
E|---------------------------------------------------------------------------|(x4)

e|-------3-------------5-----------------------------------------------------|
B|----0-------------2--------------------------------------------------------|
G|-0--------0--0h2-----------------------------------------------------------|
D|---------------------------------------------------------------------------|
A|---------------------------------------------------------------------------|
E|---------------------------------------------------------------------------|


[Outro]

Teach me how to love you like I wrote.

e|----2--5--2-----2--5--2--------2-----------2-----------3-------------------|
B|-3-----------2-----------0--3-----3--0--3-----3-----0----------------------|
G|-------------------------------------------------0---------0---------------|
D|---------------------------------------------------------------------------|
A|---------------------------------------------------------------------------|
E|---------------------------------------------------------------------------|

e|-------5--2-----2--5--2----------------------------------------------------|
B|----2--------3-----------3-------------------------------------------------|
G|-2-------------------------------------------------------------------------| 
D|---------------------------------------------------------------------------|
A|---------------------------------------------------------------------------|
E|---------------------------------------------------------------------------|


************************************

| h  Hammer-on
| r  Release

************************************
Suggest correction
Give kudos to tab author, rate the tab!
1 2 3 4 5
comments
print report bad tab
guest
You may want to rate the tab now too:
select rating
Wanna post a correction for this tab? Suggest correction