Oops, an error
Loading. Please wait.

The Pugilist Tab

598 views 33 this week
2 commentsread comments
1 2 3 4 5
x 3
add to favorites
launch autoscroll
font size
0
reset
how to read this tab
guitar tuner
Autoscroll
slow
fast
+/-
esc
set tempo
stop
Help us to improve Ultimate-Guitar.com Take our survey!
×
Author
Capo
4th fret
Tuning: Standard
Capo: 4
All tab relative to the capo.
I have made this Tab using this youtube video of keaton performing the song live for help
https://www.youtube.com/watch?v=EHxRKGi6r-U 


[Intro]

e|--------------------------------------------------|
B|--------------------------------------------------|
G|--5-----------5-----------4-----------4-----------|
D|--------5-----------5-----------5-----------5-----|
A|--------------------------------------------------|
E|--5---5---5---5---5---5---3---3---3---3---3---3---|
                                                    |(x2)
e|--------------------------------------------------|
B|--------------------------------------------------|
G|--2-----------2-----------2-----------2-----------|
D|--------2p-----------0-----------0-----------0----|
A|--------------------------------------------------|
E|--2---2---2---2---2---2---2---2---2---2---2---2---|


[Verse 1]

e|--------------------------------------------------|
B|--------------------------------------------------|
G|--5-----------5-----------5-----------5-----------|
D|--------5-----------5-----------5-----------5-----|
A|--------------------------------------------------|
E|--5---5---5---5---5---5---5---5---5---5---5---5---|
                                                    |(x2) first two lines of verse
e|--------------------------------------------------|
B|--------------------------------------------------|
G|--4-----------4-----------4-----------4-----------|
D|--------5------------5-----------5-----------5----|  
A|--------------------------------------------------|
E|--3---3---3---3---3---3---3---3---3---3---3---3---|

e|--------------------------------------------------|
B|--------------------------------------------------|
G|--5-----------5-----------4-----------4-----------|
D|--------5-----------5-----------5-----------5-----|
A|--------------------------------------------------|
E|--5---5---5---5---5---5---3---3---3---3---3---3---|

e|--------------------------------------------------|
B|--------------------------------------------------|
G|--9-----------9-----------9-----------9-----------|
D|--------0-----------0-----------0-----------0-----|
A|--------------------------------------------------|
E|--8---8---8---8---8---8---8---8---8---8---8---8---|

e|--------------------------------------------------|
B|--------------------------------------------------|
G|--11----------11----------11----------11----------|
D|--------0-----------0-----------0-----------0-----|
A|--------------------------------------------------|
E|--10--10--10--10--10--10--10--10--10--10--10--10--|

e|--------------------------------------------------|
B|--------------------------------------------------|
G|--12----------12----------11----------11----------|
D|--------0-----------0-----------0-----------0-----|
A|--------------------------------------------------|
E|--11--11--11--11--11--11--10--10--10--10--10--10--|

e|--------------------------------------------------|
B|--------------------------------------------------|
G|--9-----------9-----------9-----------9-----------|
D|--------0-----------0-----------0-----------0-----|
A|--------------------------------------------------|
E|--8---8---8---8---8---8---8---8---8---8---8---8---|

e|--------------------------------------------------|
B|--------------------------------------------------|
G|--5-----------5-----------4-----------4-----------|
D|--------5-----------5-----------5-----------5-----|
A|--------------------------------------------------|
E|--5---5---5---5---5---5---3---3---3---3---3---3---|

e|--------------------------------------------------|
B|--------------------------------------------------|
G|--7-----------7-----------9-----------9-----------|
D|--------0-----------0-----------0-----------0-----|
A|--------------------------------------------------|
E|--6---6---6---6---6---6---8---8---8---8---8---8---|

e|--------------------------------------------------|
B|--------------------------------------------------|
G|--5-----------5-----------4-----------4-----------|
D|--------5-----------5-----------5-----------5-----|
A|--------------------------------------------------|
E|--5---5---5---5---5---5---3---3---3---3---3---3---|

e|--------------------------------------------------|
B|--------------------------------------------------|
G|--2-----------2-----------2-----------2-----------| 
D|--------2p----------0-----------0-----------0-----|
A|--------------------------------------------------|
E|--2---2---2---2---2---2---2---2---2---2---2---2---|(x2)


The base of the song is here. The rest of the song follows this pattern but with change to
repetition or slight change in the order. After listening to the song and practicing, you will be able
to pick this up quite easily. 

For example the Outro is the same as the intro. Or in the second verse there is another repeat
of the part on the higher frets. 

If there are any improvements please comment below! 

************************************

| p  Pull-off

************************************
Suggest correction
Give kudos to tab author, rate the tab!
1 2 3 4 5
comments
print report bad tab
2 comments total.
0 reply
sgtillings 10 Sep 28, 2016 08:41 PM

I've submitted a correction but I'll post it here too just in case!
First off good job with this but I believe this section is a little different

e|--------------------------------------------------|
B|--------------------------------------------------|
G|--9-----------9-----------9-----------9-----------|
D|--------0-----------0-----------0-----------0-----|
A|--------------------------------------------------|
E|--8---8---8---8---8---8---8---8---8---8---8---8---|

e|--------------------------------------------------|
B|--------------------------------------------------|
G|--11----------11----------11----------11----------|
D|--------0-----------0-----------0-----------0-----|
A|--------------------------------------------------|
E|--10--10--10--10--10--10--10--10--10--10--10--10--|

e|--------------------------------------------------|
B|--------------------------------------------------|
G|--12----------12----------11----------11----------|
D|--------0-----------0-----------0-----------0-----|
A|--------------------------------------------------|
E|--11--11--11--11--11--11--10--10--10--10--10--10--|

I think its something more like-

e|--------------------------------------------------|
B|--------------------------------------------------|
G|--9-----------9-----------9-----------9-----------|
D|-------10----------10----------10----------10-----|
A|--------------------------------------------------|
E|--8---8---8---8---8---8---8---8---8---8---8---8---|

e|--------------------------------------------------|
B|--------------------------------------------------|
G|--11----------11----------11----------11----------|
D|-------12----------12----------12----------12-----|
A|--------------------------------------------------|
E|--10--10--10--10--10--10--10--10--10--10--10--10--|

e|--------------------------------------------------|
B|--------------------------------------------------|
G|--12----------12----------11----------11----------|
D|-------12----------12----------12----------12-----|
A|--------------------------------------------------|
E|--12--12--12--12--12--12--10--10--10--10--10--10--|

+1 reply
Wh00ey 32 Oct 01, 2016 05:30 PM, edited on November 8 2016, 03:36 pm

Its hard to tell, at some points it does sound like that but in others it sounds like what i have put, need to have a closer look at live versions i suppose! Cheers though!

guest
You may want to rate the tab now too:
select rating
Wanna post a correction for this tab? Suggest correction