Oops, an error
Loading. Please wait.

To Your Health Tab

version 1
version 1

Whole song

17,152 views 66 this week
3 commentsread comments
1 2 3 4 5
accurate
x 5
add to favorites
launch autoscroll
font size
0
reset
how to read this tab
guitar tuner
Tab Pro tools
  • play this tab
  • loop segment
  • change instrument
  • show fretboard
  • metronome
×
Best way to learn
"To Your Health"
Autoscroll
slow
fast
+/-
esc
set tempo
stop
Contributor
Difficulty
Capo
novice
3rd fret
Zander Young.
First Tab.
Keaton Henson.
To Your Health.



Standard Tuning.
Capo 3rd Fret.

----------------------------------------------------------------------|
----------------------------------------------------------------------|
10-----14-----7-----9-------------------------------------------------|
-0------0-----0-----0-------------------------------------------------|
----------------------------------------------------------------------|
10-----13-----6-----8-------------------------------------------------|

2nd part with the added notes.


--------------------------------------------------------|
-10---13-----6-----8------------------------------------|
-10---14-----7-----9------------------------------------|
--------------------------------------------------------|
--------------------------------------------------------|
-10---13-----6-----8------------------------------------|
comments
print report bad tab
3 comments total.
+1 reply
Libertine0987 wrote on February 24 2013, 05:51 pm

I think this is tabbed not relative to the capo, in which case all the open strings should be read as notes on the 3rd (capoed) fret.

+2 reply
zfiles11 wrote on May 13 2013, 05:34 pm

Tabbing relative to capo and Keaton's version on Youtube:

----------------------------------------------------------------------|
----------------------------------------------------------------------|
-7-----11-----6-----4------6------7-----------------------------------|
-0------0-----0-----0------0------0-----------------------------------|
----------------------------------------------------------------------|
-7-----10-----5-----3------5------7-----------------------------------|

+1 reply
xxSabakaxx wrote on June 11 2014, 04:52 am

Here are some variations in the middle of the song(related to capo\3rd fret):

----------------------------------------------------------------------|
-7~~7~~-(7)-10--10--10----\-2-2/3-3-3-3---/-10--10--10---\-2-2/3-3-3-/|
--------------11--11--11--\--2---4-4-4-4--/---11--11--11-\--2---2-2-2/|
----------------------------------------------------------------------|
----------------------------------------------------------------------|
----------------------------------------------------------------------|

----------------------------------------------------------------------|
/5-5/7-7-7-7---3------------------------------------------------------|
/-6---7-7-7-7--4------------------------------------------------------|
----------------------------------------------------------------------|
----------------------------------------------------------------------|
----------------------------------------------------------------------|
This can be, of course, inaccurate.

I want to post or [tab]
guest
You may want to rate the tab now too:
select rating
Please do not post tabs as comments. Select "correction" instead!