Oops, an error
Loading. Please wait.

You Dont Know How Lucky You Are Tab

60,166 views 195 this week
4 commentsread comments
1 2 3 4 5
excellent!
x 47
add to favorites
launch autoscroll
font size
0
reset
how to read this tab
guitar tuner
Autoscroll
slow
fast
+/-
esc
set tempo
stop
Help us to improve Ultimate-Guitar.com Take our survey!
×
Difficulty
Tuning
intermediate
D A D G B E
[Intro]

   1     2     3     4     5     6     1     2     3     4     5     6
E|-------------------------------------------------------------------------|
B|------<7>----------------------------------------------------------------|
G|------------------<7>----------------------------------------------------|
D|------------<7>----------------------------------------------------------|
A|-0-----------------------------------------------------------------------|
D|-0-----------------------------------------------------------------------|

   1     2     3     4     5     6     1     2     3     4     5     6
E|-------------------------------------------------------------------------|
B|------<7>----------------------------------------------------------------|
G|------------------<7>----------------------------------------------------|
D|------------<7>----------------------------------------------------------|
A|-0-----------------------------------------------------------------------|
D|-0-----------------------------------------------------------------------|

   1     2     3     4     5     6     1     2     3     4     5     6
E|-------------------------------------------------------------------------|
B|------<7>----------------------------------------------------------------|
G|------------------<7>----------------------------------------------------|
D|------------<7>----------------------------------------------------------|
A|-9-----------------------------------------------------------------9-----|
D|-9-----------------------------------------------------------------9-----|

   1     2     3     4     5     6     1     2     3     4     5     6
E|-------------------------------------------------------------------------|
B|------<7>----------------------------------------------------------------|
G|------------------<7>----------------------------------------------------|
D|------------<7>----------------------------------------------------------|
A|-7-----------------------------------------------------------------7-----|
D|-7-----------------------------------------------------------------7-----|

   1     2     3     4     5     6     1     2     3     4     5     6
E|-------------------------------------------------------------------------|
B|------<7>---------------------------------<7>---------<7>----------------|
G|------------------<7>----------------------------------------------------|
D|------------<7>---------------------------------<7>----------------------|
A|-5-----------------------------------------------------------------5--5--|
D|-5-----------------------------------------------------------------5--5--|


[Verse]

   1     2     3     1     2     3     1     2     3     1     2     3
E|-------------------------------------------------------------------------|
B|----------7-----------------7-----------------7-----------7-^8-----------|
G|----------7-----7-----------7-----7-----------7-----7-----7-----7--------|
D|-------------------------------------------------------------------------|
A|-0-----0-----------0-----0-----------0-----0-----------0-----------------|
D|-0-----0-----------0-----0-----------0-----0-----------0-----------------|


   1     2     3     1     2     3     1     2     3     1     2     3
E|-------------------------------------------------------------------------|
B|----------7-----------------7-----------------7--------------------------|
G|----------7-----7-----------7-----7-----------7-----7--------------------|
D|------------------------------------------------------<12>---------------|
A|-0-----0-----------0-----0-----------0-----0-----------0-----------------|
D|-0-----0-----------0-----0-----------0-----0-----------0-----------------|
                                                                  Does He…

 1     2     3     1     2     3     1     2     3     1     2     3
E|-------------------------------------------------------------------------|
B|----------7-----------------7-----------------7--------------------------|
G|----------7-----7-----------7-----7-----------7-----7--------------------|
D|-------------------------------------------------------------------------|
A|-0-----0-----0-----0-----0-----0-----0-----0-----0-----0-----0-----0-----|
D|-0-----0-----0-----0-----0-----0-----0-----0-----0-----0-----0-----0-----|
  Know                                                            Who You…


   1     2     3     1     2     3     1     2     3     1     2     3
E|-------------------------------------------------------------------------|
B|----------7-----------------7-----------------7-^8--7-----------7--------|
G|----------7-----7-----------7-----7-----------7-----7--7--------7--------|
D|-------------------------------------------------------------------------|
A|-0-----0-----0-----0-----0-----0-----0-----0-----0-----0-----0-----0-----|
D|-0-----0-----0-----0-----0-----0-----0-----0-----0-----0-----0-----0-----|
  Are?                                                             Does He…

   1     2     3     1     2     3     1     2     3     1     2     3
E|-------------------------------------------------------------------------|
B|----------7-----------------7-----------------7-----------------7--------|
G|----------7-----7-----------7-----7-----------7-----7-----------7--------|
D|-------------------------------------------------------------------------|
A|-9-----9-----9-----9-----9-----9-----9-----9-----9-----9-----9-----9-----|
D|-9-----9-----9-----9-----9-----9-----9-----9-----9-----9-----9-----9-----|
  Laugh…                                                           Just To…

   1     2     3     1     2     3     1     2     3     1     2     3
E|-------------------------------------------------------------------------|
B|----------7-----------------7-----------------7-----------------7--------|
G|----------7-----7-----------7-----7-----------7-----7-----------7--------|
D|-------------------------------------------------------------------------|
A|-7-----7-----7-----7-----7-----7-----7-----7-----7-----7-----7-----7-----|
D|-7-----7-----7-----7-----7-----7-----7-----7-----7-----7-----7-----7-----|
  Know?                                                             What He…

   1     2     3     1     2     3     1     2     3     1     2     3
E|-------------------------------------------------------------------------|
B|----------7-----------------7-----------------7-----------------7--------|
G|----------7-----7-----------7-----7-----------7-----7-----------7--------|
D|-------------------------------------------------------------------------|
A|-5-----5-----5-----5-----5-----5-----5-----5-----5-----5-----5-----5-----|
D|-5-----5-----5-----5-----5-----5-----5-----5-----5-----5-----5-----5-----|
                   …Has

   1     2     3     1     2     3     1     2     3     1     2     3
E|-------------------------------------------------------------------------|
B|----------7-----------------7-^8—-7-p0--------7--------------------------|
G|----------7-----7-----------7-----7-----------7-----7--------------------|
D|-------------------------------------------------------------------------|
A|-0-----0-----0-----0-----0-----0-----0-----0-----0-----0-----------------|
D|-0-----0-----0-----0-----0-----0-----0-----0-----0-----0-----------------|
                                                                    Does He…

   1     2     3     1     2     3     1     2     3     1     2     3
E|-------------------------------------------------------------------------|
B|----------7-----------------7-^8—-7-----------7-----------------7--------|
G|----------7-----7-----------7-----7-----------7-----7-----------7--------|
D|-------------------------------------------------------------------------|
A|-0-----0-----0-----0-----0-----0-----0-----0-----0-----0-----0-----0-----|
D|-0-----0-----0-----0-----0-----0-----0-----0-----0-----0-----0-----0-----|
  Know…                                                              Not To…


   1     2     3     1     2     3     1     2     3     1     2     3
E|-------------------------------------------------------------------------|
B|----------7-----------------7-----------------7--------------------------|
G|----------7-----7-----------7-----7-----------7-----7--------------------|
D|-------------------------------------------------------------------------|
A|-0-----0-----0-----0-----0-----0-----0-----0-----0-----0-----0-----0-----|
D|-0-----0-----0-----0-----0-----0-----0-----0-----0-----0-----0-----0-----|
  Talk…                                                          About Your…


   1     2     3     1     2     3     1     2     3
E|-------------------------------------------------------|
B|----------7-----------------2--------2/3---------3—----|
G|----------7-----------------2--------2/4---------4-----|
D|-------------------------------------------------------|
A|-9--------9-----9--4--------4-----4--4/5------5--5-----|
D|-9--------9-----9--4--------4-----4--4/5------5--5-----|
  Dad?


   1     2     3     1     2     3     1     2     3     1     2     3
E|--------------------------------------------------------------------------|
B|3/7-------7-----------------7-----------------7---------------------------|
G|4/7-------7-----------------7-----7-----------7-----7---------------------|
D|--------------------------------------------------------------------------|
A|-0-----0-----0-----0-----0-----0-----0-----0-----0-----0-----0-----0------|
D|-0-----0-----0-----0-----0-----0-----0-----0-----0-----0-----0-----0------|
                                                   Does He Know When You’re…


   1     2     3     1     2     3     1     2     3
E|-------------------------------------------------------|
B|----------7-----------------2--2-----2/3---------3—----|
G|----------7-----------------2--2-----2/4---------4-----|
D|-------------------------------------------------------|
A|-9-----9-----9-----4-----4-----4-----4/5----5--5-------|
D|-9-----9-----9-----4-----4-----4-----4/5----5--5-------|
  Sad?


[Chorus]

   1     2     3     1     2     3     1     2     3     1     2     3
E|-------------------------------------------------------------------------|
B|-7--------7-----------------7------------------7-------------------------|
G|-7--------7-----------------7-----7------------7----7--------------------|
D|-------------------------------------------------------------------------|
A|-0-----0-----0-----0-----0-----0-----0-----0-----0-----0-----0-----0-----|
D|-0-----0-----0-----0-----0-----0-----0-----0-----0-----0-----0-----0-----|
                                                       You Don’t Like To Be…

   1     2     3     1     2     3     1     2     3     1     2     3
E|-------------------------------------------------------------------------|
B|----------5-----------5-----------------------5-----------5--------------|
G|----------------6-----------6-----6-----------------6--------------------|
D|-------------------------------------------------------------------------|
A|-------------------------------------------------------------------------|
D|-7-----7-----7-----7-----7-----7-----7-----7-----7-----7-----7-----7-----|
                   …Touched                                       …Let Alone


   1     2     3     1     2     3     1     2     3     1     2     3
E|-------------------------------------------------------------------------|
B|----------3-----------3--------------------------------------------------|
G|----------4-----------4--------------------------------------------------|
D|-------------------------------------------------------------------------|
A|-------------------------------------------------------------------------|
D|-5-----5-----5-----5-----5-----5--------5--------------------------------|
                   …Kissed                          Does He Know Where Your…


  1     2     3     1     2     3     1     2     3     1     2     3
E|-------------------------------------------------------------------------|
B|----------7-----------------7----------------7--7-^8--7------------------|
G|----------7-----7-----------7-----7----------7--7---------7-----7--------|
D|-------------------------------------------------------------------------|
A|-0-----0-----0-----0-----0-----0-----0-----0-----0-----0-----0-----0-----|
D|-0-----0-----0-----0-----0-----0-----0-----0-----0-----0-----0-----0-----|
  Lips Begin?


[Verse]

   1     2     3     1     2     3     1     2     3     1     2     3
E|-------------------------------------------------------------------------|
B|----------7-----------------7--------------------7-^8--7-----------------|
G|----------7-----7-----------7-----7--------------7-----------------------|
D|-------------------------------------------------------------------------|
A|-0-----0-----0-----0-----0-----0-----0-----0-----0-----------------------|
D|-0-----0-----0-----0-----0-----0-----0-----0-----0-----------------------|
                                                                     Do You…

   1     2     3     1     2     3     1     2     3     1     2     3
E|-------------------------------------------------------------------------|
B|----------7-----------------7-----------------7--7-^8--7-----------------|
G|----------7-----7-----------7-----7-----------7--7-----------------------|
D|-------------------------------------------------------------------------|
A|-0-----0-----0-----0-----0-----0-----0-----0-----0-----0-----0-----0-----|
D|-0-----0-----0-----0-----0-----0-----0-----0-----0-----0-----0-----0-----|
  Know…                                                             Who you…

   1     2     3     1     2     3     1     2     3     1     2     3
E|-------------------------------------------------------------------------|
B|----------7-----------------7-----------------7--------------------------|
G|----------7-----7-----------7-----7-----------7-----7--------------------|
D|-------------------------------------------------------------------------|
A|-0-----0-----0-----0-----0-----0-----0-----0-----0-----0-----------0-----|
D|-0-----0-----0-----0-----0-----0-----0-----0-----0-----0-----------0-----|
  Are?                                                              Do You…

   1     2     3     1     2     3     1     2     3     1     2     3
E|-------------------------------------------------------------------------|
B|----------7-----------------7-----------------7-----------------7--------|
G|----------7-----7-----------7-----7-----------7-----7-----------7--------|
D|-------------------------------------------------------------------------|
A|-9-----9-----9-----9-----9-----9-----9-----9-----9-----9-----9-----9-----|
D|-9-----9-----9-----9-----9-----9-----9-----9-----9-----9-----9-----9-----|
  Laugh…                                                           Just To…

   1     2     3     1     2     3     1     2     3     1     2     3
E|-------------------------------------------------------------------------|
B|----------7-----------------7-----------------7-----------------7--------|
G|----------7-----7-----------7-----7-----------7-----7-----------7--------|
D|-------------------------------------------------------------------------|
A|-7-----7-----7-----7-----7-----7-----7-----7-----7-----7-----7-----7-----|
D|-7-----7-----7-----7-----7-----7-----7-----7-----7-----7-----7-----7-----|
  Think?                                                             What I…

   1     2     3     1     2     3     1     2     3     1     2     3
E|-------------------------------------------------------------------------|
B|----------7-----------------7-----------------7-----------------7--------|
G|----------7-----7-----------7-----7-----------7-----7-----------7--------|
D|-------------------------------------------------------------------------|
A|-5-----5-----5-----5-----5-----5-----5-----5-----5-----5-----5-----5-----|
D|-5-----5-----5-----5-----5-----5-----5-----5-----5-----5-----5-----5-----|
                   …Lack

   1     2     3     1     2     3     1     2     3     1     2     3
E|-------------------------------------------------------------------------|
B|----------7-----------------7-—---------------7--------------------------|
G|----------7-----7-----------7-----7-----------7--7-^8--7-----------------|
D|----------------------------------------------------------7-----7--------|
A|-0-----0-----0-----0-----0-----0-----0-----0-----0-----0-----0-----0-----|
D|-0-----0-----0-----0-----0-----0-----0-----0-----0-----0-----0-----0-----|


   1     2     3     1     2     3     1     2     3     1     2     3
E|-------------------------------------------------------------------------|
B|----------7-----------------7-—---------------7-----7-----------7--------|
G|----------7-----7-----------7-----7-----------7-----7--7--------7-----7--|
D|-------------------------------------------------------------------------|
A|-0-----0-----0-----0-----0-----0-----0-----0-----0-----0-----0-----0-----|
D|-0-----0-----0-----0-----0-----0-----0-----0-----0-----0-----0-----0-----|
                                                                     Do You…

   1     2     3     1     2     3     1     2     3     1     2     3
E|-------------------------------------------------------------------------|
B|----------7-----------------7-—---------------7-----------------7--------|
G|----------7-----7-----------7-----7-----------7-----7-----------7-----7--|
D|-------------------------------------------------------------------------|
A|-0-----0-----0-----0-----0-----0-----0-----0-----0-----0-----0-----0-----|
D|-0-----0-----0-----0-----0-----0-----0-----0-----0-----0-----0-----0-----|
  Know?                                                            Your Lip…


   1     2     3     1     2     3     1     2     3     1     2     3
E|-------------------------------------------------------------------------|
B|----------7-----------------7-—---------------7--------------------------|
G|----------7-----7-----------7-----7-----------7-----7--------------------|
D|-------------------------------------------------------------------------|
A|-0-----0-----0-----0-----0-----0-----0-----0-----0-----0-----0-----0-----|
D|-0-----0-----0-----0-----0-----0-----0-----0-----0-----0-----0-----0-----|
  Shakes…                                                       When You’re…

   1     2     3     1     2     3     1     2     3
E|-------------------------------------------------------|
B|----------7-----------------2-----------3------3---—---|
G|----------7-----------------2-----------4------4-------|
D|-------------------------------------------------------|
A|-9-----9-----9--9--4-----4-----4--4-/5------5--5-------|
D|-9-----9-----9--9--4-----4-----4--4-/5------5--5-------|
  Mad?

   1     2     3     1     2     3     1     2     3     1     2     3
E|--------------------------------------------------------------------------|
B|3/7-------7--------7---------7----------7--------------------7------------|
G|4/7-------7--------7---------7----------7--------------------7------------|
D|--------------------------------------------------------------------------|
A|-0-----0-----0-----0-----0-----0-----0-----0-----0-----0-----0-----0------|
D|-0-----0-----0-----0-----0-----0-----0-----0-----0-----0-----0-----0------|
                                                  Do You Notice When You’re…

   1     2     3     1     2     3     1     2     3
E|-------------------------------------------------------|
B|----------7-----------------2-----------3------3---—---|
G|----------7-----------------2-----------4------4-------|
D|-------------------------------------------------------|
A|-9-----9-----9--9--4-----4-----4--4-/5------5--5-------|
D|-9-----9-----9--9--4-----4-----4--4-/5------5--5-------|
  Sad?


[Chorus]

   1     2     3     1     2     3     1     2     3     1     2     3
E|-------------------------------------------------------------------------|
B|3/7-------7-----7--------7-----7--7-----7-----------------------7-----7--|
G|4/7-------7-----7--------7-----7--7-----7-----------------------7-----7--|
D|-------------------------------------------------------------------------|
A|-0-----0-----0-----0-----0-----0-----0-----0-----0-----0-----0-----0-----|
D|-0-----0-----0-----0-----0-----0-----0-----0-----0-----0-----0-----0-----|
                                                       You Don’t Like To Be…

   1     2     3     1     2     3     1     2     3     1     2     3
E|-------------------------------------------------------------------------|
B|----------5-----------------5-----------------5-----------5--------------|
G|----------------6-----------------6-----------------6-----------6--------|
D|-------------------------------------------------------------------------|
A|-------------------------------------------------------------------------|
D|-7-----7-----7-----7-----7-----7-----7-----7-----7-----7-----7-----7-----|
                   …Touched                                       …Let Alone

   1     2     3     1     2     3     1     2     3     1     2     3
E|-------------------------------------------------------------------------|
B|----------3-----------------3--------------------------------------------|
G|----------------4-----------------4--------------------------------------|
D|-------------------------------------------------------------------------|
A|-------------------------------------------------------------------------|
D|-5-----5-----5-----5-----5-----5-----5-----5-----------------------------|
                   …Kissed                          Does His Love Make Your…

   1     2     3     1     2     3     1     2     3     1     2     3
E|-------------------------------------------------------------------------|
B|----------7-----------------7-----------------7--------------------------|
G|----------7-----7-----------7-----7-----------7-----7-----7-----------7--|
D|-------------------------------------------------------------------------|
A|-0-----0-----0-----0-----0-----0-----0-----0-----0-----0-----0-----0-----|
D|-0-----0-----0-----0-----0-----0-----0-----0-----0-----0-----0-----0-----|
  Head Spin?                                        Does His Love Make Your…

   1     2     3     1     2     3     1     2     3     1     2     3
E|-------------------------------------------------------------------------|
B|----------7-----------------7-----------------7--------------------------|
G|----------7-----7-----------7-----7-----------7-----7-----7-----7-----7--|
D|-------------------------------------------------------------------------|
A|-0-----0-----0-----0-----0-----0-----0-----0-----0-----0-----0-----0-----|
D|-0-----0-----0-----0-----0-----0-----0-----0-----0-----0-----0-----0-----|
  Head Spin?                                        Does His Love Make Your…


   1     2     3     1     2     3     1     2     3     1     2     3
E|-------------------------------------------------------------------------|
B|----------7-----------------7-----------------7-----------------7--------|
G|----------7-----7-----------7-----7-----------7-----7-----------7-----7--|
D|-------------------------------------------------------------------------|
A|-0-----0-----0-----0-----0-----0-----0-----0-----0-----0-----0-----0-----|
D|-0-----0-----0-----0-----0-----0-----0-----0-----0-----0-----0-----0-----|
  Head Spin?


[Outro]

   1     2     3     1     2     3     1     2     3
E|-------------------------------------------------------|
B|----------7-----------------2-----2--2/3------3---—----|
G|----------7----p0-----------2-----2--2/4------4--------|
D|-------------------------------------------------------|
A|-9-----9-----------4-----4-----4-----------5-----5-----|
D|-9-----9-----------4-----4-----4-----------5-----5-----|


   1     2     3     1     2     3     1     2     3
E|-------------------------------------------------------|
B|-3/7----------------------------------------------—----|
G|-4/7---------------------------------------------------|
D|-------------------------------------------------------|
A|-------------------0-----0-----------------------------|
D|-------------------0-----0-----------------------------|


*******************************

| <7>   Harmonic
| ^8    Pitch Bend
| 2/3   Slide
| p0    Pull-Off

*******************************
Suggest correction
comments
print report bad tab
4 comments total. Showing first comments.
0 reply
BHwannabe 10 wrote on January 22 2012, 02:57 pm

THANK YOU SO MUCH! :)

+3 reply
oli-kun 38 wrote on February 6 2012, 07:48 pm

I actually love you for putting this up.

+3 reply
michaeljepson 73 wrote on January 5 2013, 09:44 am

Phenomenal tab! Thanks so much! Always wanted to play this song

guest
You may want to rate the tab now too:
select rating
Please do not post tabs as comments. Select "correction" instead!